Guitaretab - guitar tabs
Song name
# A B C D E F G H I J K L M N O P Q R S T U V W X Y Z

The Ting Tings - Thats Not My Name Acoustic tab

The Ting Tings - that's not my name

Hey there, this is my first tab.
I think it's like the Ting Tings play it live!
greetz Lukas S.

V down
^ up
* pm

Intro / verse / chorus


E|---------------------------------------|
B|---------------------------------------|
G|---------------------------------------|
D|---2--2--2--2--2--0---2--2--2--2-------|  x7
A|---2--2--2--2--2--0---2--2--2--2-------|
E|---0--0--0--0--0--0---0--0--0--0--3----|
        *     *  *         *     *  *
     V  V  ^  ^  V  ^   V  V  ^  ^  V
[ Tab from: http://www.guitaretab.com/t/the-ting-tings/109434.html ]
E|---------------------------------------|
B|---------------------------------------|
G|---2--2--2--2--2--0---2--2--2--2--2----|  x4
D|---2--2--2--2--2--0---2--2--2--2--2----|
A|---0--0--0--0--0--0---0--0--0--0--0----|
E|---------------------------------------|
        *     *  *         *     *  *
     V  V  ^  ^  V  ^   V  V  ^  ^  V

E|---------------------------------------|
B|---------------------------------------|
G|---2--2--2--2--2--0---2--2--4----------|  
D|---2--2--2--2--2--0---2--2--4----------|
A|---0--0--0--0--0--0---0--0--0----------|
E|---------------------------------------|
        *     *  *              
     V  V  ^  ^  V  ^   V  V  ^  

Related for Thats Not My Name Acoustic tab
×
Thats Not My Name Acoustic