Song name
# A B C D E F G H I J K L M N O P Q R S T U V W X Y Z

The Ting Tings - Shut Up And Let Me Go tab

-------------------------------------------------------------------------------
			     Shut up and let me go - The Ting Tings
-------------------------------------------------------------------------------
Tabbed by: D-alis
Email: vage_voszie@hotmail.com

Tuning: standard

The correct one!! Enjoy!:D


you know when:)
e|------7---x---7---x---7---x----7---7---7--------|
B|------8---x---8---x---8---x----8---7---7--------|
G|------7---x---7---x---7---x----7---7---7--------| 2x then...
D|------9---x---9---x---9---x----9---9---9--------|
A|------7---x---7---x---7---x----7---7---7--------|
E|------------------------------------------------|

e|------8---8---8---x----8---8---8----------------|
B|------8---8---8---x----8---8---8----------------|
G|------9---9---9---x----9---9---9----------------| 1x  
D|------10--10--10--x----10--10--10---------------|
A|-----(0)--(0)-(0)-x----(0)-(0)-(0)--------------|
E|------------------------------------------------|

e|------7---x---7---x---7---x----7---7---7--------|
B|------8---x---8---x---8---x----8---7---7--------|
G|------7---x---7---x---7---x----7---7---7--------| once and repeat again.
D|------9---x---9---x---9---x----9---9---9--------|
A|------7---x---7---x---7---x----7---7---7--------|
E|------------------------------------------------|

Now oh... un- ignorable 
e|------------------------------------------------|
B|------------------------------------------------|
G|------------------------------------------------| 2x
D|------5---5---5---5-----------------------------| 
A|---------------------7--5----7---7---7---7------|
E|------------------------------------------------|

I ain't freaking, I ain't faking this
e|------------------------------------------------|
B|------------------------------------------------|
G|------------------------------------------------|
D|------------------------7-----------------------| 2x
A|------7---7---7---7--5------7---7---7---7--5--5-|
E|------------------------------------------------|

(2.40 - end) 
e|----------------------------|
B|----------------------------
G|----------------------------|
D|----------------------------|
A|------7---7---7---7--5--5---|
E|----------------------------|


| /  slide up
| \  slide down
| h  hammer-on
| p  pull-off
| ~  vibrato
| +  harmonic
| x  Mute note
===============================================================================
Tap to rate this tab
# A B C D E F G H I J K L M N O P Q R S T U V W X Y Z