Song name
# A B C D E F G H I J K L M N O P Q R S T U V W X Y Z

The Ting Tings - We Walk Live tab

-------------------------------------------------------------------------------
			     We Walk (live Version) - The Ting Tings
-------------------------------------------------------------------------------
Tabbed by: THEkapow
Email: kapowboom@hotmail.co.uk


This is just the main part of the song when performed live... repeated a thousand times

E-----------------|-----------------|-----------------|-----------------|
B-----------------|-----------------|-----------------|-----------------|
G-----------------|-----------------|-----------------|-----------------|
D--5-5-4-5--------|--5-5-7-9--------|--9-9-7-9--------|--9-9-4-5--------|
A--3-3-2-3--------|--3-3-5-7--------|--7-7-5-7--------|--7-7-2-3--------|
E-----------------|-----------------|-----------------|-----------------|

Some of the song is just random chords that Katie plays on her lovely Korg synth. 
And then part way through the song theres a little break down section, this varies 
from performance through performance but the jist of it that Jules plays is

E-----------------|-----------------|-----------------|-----------------|
B-----------------|-----------------|-----------------|-----------------|
G-----------------|-----------------|-----------------|-----------------|
D---9---9----9----|---7---7----7----|---4---4----4----|---5---5----5----|
A-7---7-----7-----|-5---5-----5-----|-2---2-----2-----|-3---3-----3-----|
E-----------------|-----------------|-----------------|-----------------|

then back into the main riff until end



===========================================================================


Tap to rate this tab
 
# A B C D E F G H I J K L M N O P Q R S T U V W X Y Z