Song name
# A B C D E F G H I J K L M N O P Q R S T U V W X Y Z

The Ting Tings - Fruit Machine tab

Main Riff that is played throughout most of the song (palm muted in first verse) 
it is played on an acoustic guiatr in the background when it sounds like just bass IS PLAYING.
e|-----------|
B|-----------|
G|7x7x7x7x567|
D|7x7x7x7x567|
A|5x5x5x5x345|
E|-----------|

Sometimes changes to
e|-----------|
B|-----------|
G|-----------|
D|5x5x5x5x345|
A|5x5x5x5x345|
E|3x3x3x3x123|

Solo
I've tabbed the solo twice, one lower version, and one higher version, you choose 
one sounds best to you, they both should be right.
e|------------------------|
B|------------------------|
G|----------------55-444--|
D|----4444555-777--------7|
A|5555--------------------|
E|------------------------|x2

e|-------------------------------------|
B|-------------------------------------|
G|-------------------------------------|
D|55-333-----333-5-5-55-6-6-666b~------|
A|-------555--------------------------5|
E|-------------------------------------|

Or

e|------------666-99-888-6|
B|----7777888-------------|
G|7777--------------------|
D|------------------------|
A|------------------------|
E|------------------------|x2

e|-------------------------------------|
B|88-666-----666-6-6-66-7-7-777b~------|
G|-------777---------------------------|
D|-------------------------------------|
A|------------------------------------5|
E|-------------------------------------|

Thats all. Its a fun song to play if your a beginner like me.
Tap to rate this tab
 
# A B C D E F G H I J K L M N O P Q R S T U V W X Y Z