Song name
# A B C D E F G H I J K L M N O P Q R S T U V W X Y Z

The Ting Tings - Be The One Acoustic tab

The Ting Tings - Be The One (Acoustic Version)

People have been going crazy looking for a decent tab of this amazing acoustic version 
I think I've got it down! Enjoy.

Intro/Verse:

e|-------2---------------2-----------------------------------------|
B|-----3-----3---3-----3-----3---3-------3---------------3---------|
G|---2---------2-----2---------2-------0-----0---0-----0-----0---0-|
D|-0---------------0-----------------0---------0-----0---------0---|
A|-----------------------------------------------------------------|
E|---------------------------------3---------------3---------------|

Chorus:

e|-------------------------------------------------------2-------|
B|-------3---------------2---------------3-------------3---3---3-|
G|-----0-----0---0-----2-----2---2-----0-----0---0---2-------2---|
D|---0---------0-----2---------2-----0---------0---0-------------|
A|-----------------0---------------------------------------------|
E|-3-------------------------------3---------------3-------------|

e|-------------------------------------------------|
B|-------3---------------2---------------2---------|
G|-----0-----0---0-----2-----2---2-----2-----2---2-|
D|---0---------0-----2---------2-----2---------2---|
A|-----------------0---------------0---------------|
E|-3-----------------------------------------------|


For the bridge (Ooh...what you gonna offer now?), just repeat the tab for the intro and 
Then repeat the chorus.


The next part uses chords:

 D
This was not my idea

 G
Don't you keep me waiting


Ending:

e|-------2---------------2-----------------------------------------|
B|-----3-----3---3-----3-----3---3-------3---------------3---------|
G|---2---------2-----2---------2-------0-----0---0-----0-----0---0-|
D|-0---------------0-----------------0---------0-----0---------0---|
A|-----------------------------------------------------------------|
E|---------------------------------3---------------3---------------|

e|-----------------|
B|-------3-------2-|
G|-----0-------2---|
D|---0-------2-----|
A|---------0-------|
E|-3---------------|       End on D.


Please rate and comment!
Tap to rate this tab
 
# A B C D E F G H I J K L M N O P Q R S T U V W X Y Z