Song name
# A B C D E F G H I J K L M N O P Q R S T U V W X Y Z

The Ting Tings - We Started Nothing tab

The Ting Tings - We Started Nothing 

Tuning: Standard 

Listen to the song for the rhythm

Capo - 2nd Fret

Intro: 

e|----2-2-2----0-0-0-------------------------------------|
B|----3-3-3----0-0-0-----x6------------------------------|
G|----2-2-2----0-0-0-------------------------------------|
D|-------------------------------------------------------|
A|-------------------------------------------------------|
E|-------------------------------------------------------|


Verse 1:

No one dropped off waiting in despair
Every time I go there's no one there
So tell me where's the soul, where's the soul

e|----2-2-2----0-0-0-------------------------------------|
B|----3-3-3----0-0-0--x12--------------------------------|
G|----2-2-2----0-0-0-------------------------------------|
D|-------------------------------------------------------|
A|-------------------------------------------------------|
E|-------------------------------------------------------|

Submit it all locked up to hard to lose control

e|----2-2-2----0-0-0---------------------------------|
B|----3-3-3----0-0-0---x3----------------------------|
G|----2-2-2----0-0-0---------------------------------|
D|-------------------------------5-5--2-2-2----------|
A|-------------------------------5-5--2-2-2----------|
E|-------------------------------3-3--0-0-0----------|

Chorus:

I started nothing, I wish I didn't  X 4

e|----2-2-2----0-0-0-------------------------------------|
B|----3-3-3----0-0-0-----------------------------------|
G|----2-2-2----0-0-0-------------------------------------|
D|-------------------------------------------------------|
A|-------------------------------------------------------|
E|-------------------------------------------------------|


Verse 2

Wait on a new gonna bet one today
How its only all of us ifs and buts falling dead
Tell me where's the soul Oh, where's the soul

e|----2-2-2----0-0-0-------------------------------------|
B|----3-3-3----0-0-0--x12--------------------------------|
G|----2-2-2----0-0-0-------------------------------------|
D|-------------------------------------------------------|
A|-------------------------------------------------------|
E|-------------------------------------------------------|

If its been a whole day its time to let it go.

e|----2-2-2----0-0-0---------------------------------|
B|----3-3-3----0-0-0---x3----------------------------|
G|----2-2-2----0-0-0---------------------------------|
D|-------------------------------5-5--2-2-2----------|
A|-------------------------------5-5--2-2-2----------|
E|-------------------------------3-3--0-0-0----------|

*Chorus*


Verse 3

How often keep givin in to what they say
Wer're too open when we're only showed one way
And with the offer open opportunity to do 

e|----2-2-2----0-0-0-------------------------------------|
B|----3-3-3----0-0-0--x12--------------------------------|
G|----2-2-2----0-0-0-------------------------------------|
D|-------------------------------------------------------|
A|-------------------------------------------------------|
E|-------------------------------------------------------|


To make a mighty step no insoles in my shoe

e|----2-2-2----0-0-0---------------------------------|
B|----3-3-3----0-0-0---x3----------------------------|
G|----2-2-2----0-0-0---------------------------------|
D|-------------------------------5-5--2-2-2----------|
A|-------------------------------5-5--2-2-2----------|
E|-------------------------------3-3--0-0-0----------|

*Chorus*


Long Interlude with a combanation of:

e|----2-2-2----0-0-0-----------------------|
B|----3-3-3----0-0-0-----------------------|
G|----2-2-2----0-0-0-----------------------|
D|-----------------------------------------|
A|-----------------------------------------|
E|-----------------------------------------|

e|----2-2-2-----------------3-3-3------0-0-0--------|
B|----3-3-3-----------------3-3-3------0-0-0--------|
G|----2-2-2-----------------2-2-2------0-0-0--------|
D|----------------5-5-5-----------------------------|
A|----------------5-5-5-----------------------------|
E|----------------3-3-3-----------------------------|

e|----2-2-2-----------------------------2-3-2----------|
B|----3-3-3-----------------------------3-3-3----------|
G|----2-2-2-----------------------------2-2-2----------|
D|----------------5-5-5-----7-7-7----------------------|
A|----------------5-5-5-----7-7-7----------------------|
E|----------------3-3-3-----5-5-5----------------------|


Repeat as many times as needed


Outro

e|----2-2-2----0-0-0------------------------------------|
B|----3-3-3----0-0-0-----x4-----------------------------|
G|----2-2-2----0-0-0------------------------------------|
D|------------------------------------------------------|
A|------------------------------------------------------|
E|------------------------------------------------------|



This is my first tab but please feel free to make comments and corrections where needed :)

Tap to rate this tab
# A B C D E F G H I J K L M N O P Q R S T U V W X Y Z