Song name
# A B C D E F G H I J K L M N O P Q R S T U V W X Y Z

The Tokens - Lion Sleeps Tonight tab

Song: The lion sleeps tonight
Artist: The Tokens

tabbed by Francy [ITA]
My name is Francesco Giampiccolo, if you have any question ask me... My e-mail address 
francesco.giampiccolo@virgilio.it


e |----------------------------------------------------------|
B |----------------------------------------------------------|
G |----------------------------------------------------------|        x2
D |----------------------------------------------------------|
A |----0-2-0--2-3-2-0----0-----------------------------------|
E |--3-----------------3----3-3-3-3-3------------------------|


e |-------------------------------------------------------|
B |-------------------------------------------------------|
G |-------------------------------------------------------|
D |-------------------------------------------------------|
A |--2-2-0-0--2-2-0-0--2-2-0-0----------------------------|      repeat as necessary
E |-------------------------------------------------------|

e |--------------------------------------------------|
B |--------------------------------------------------|
G |--------------------------------------------------|
D |--------------------------------------------------|
A |----0-2-0--2-3-2-0----0-2-0---2-0-----------------|
E |--3-----------------3--------3--------------------|

e |--------------------------------------------------|
B |--------------------------------------------------|
G |--------------------------------------------------|
D |--------------------------------------------------|
A |--5-3-2-3--5-3-2-0---0-2-0---2-0------------------|
E |--------------------3-------3---------------------|

e |-------------------------------------------------------|
B |-------------------------------------------------------|
G |-------------------------------------------------------|
D |-------------------------------------------------------|
A |--2-2-0-0--2-2-0-0--2-2-0-0----------------------------|      repeat as necessary
E |-------------------------------------------------------|

e |--------------------------------------------------|
B |--------------------------------------------------|
G |--------------------------------------------------|
D |--------------------------------------------------|
A |----0-2-0--2-3-2-0----0-2-0---2-0-----------------|
E |--3-----------------3--------3--------------------|

e |--------------------------------------------------|
B |--------------------------------------------------|
G |--------------------------------------------------|
D |--------------------------------------------------|
A |--5-3-2-3--5-3-2-0---0-2-0---2-0------------------|
E |--------------------3-------3---------------------|

e |-------------------------------------------------------|
B |-------------------------------------------------------|
G |-------------------------------------------------------|
D |-------------------------------------------------------|
A |--2-2-0-0--2-2-0-0--2-2-0-0----------------------------|      repeat as necessary
E |-------------------------------------------------------|

solo (it's a keyboard, I think)

e |--------------------------------------------------|
B |--------------------------------------------------|
G |--------------------------------------------------|
D |--------------------------------------------------|
A |----0-2-0--2-3-2-0----0-2-0---2-0-----------------|
E |--3-----------------3--------3--------------------|

e |--------------------------------------------------|
B |--------------------------------------------------|
G |--------------------------------------------------|
D |--------------------------------------------------|
A |--5-3-2-3--5-3-2-0---0-2-0---2-0------------------|
E |--------------------3-------3---------------------|

e |-------------------------------------------------------|
B |-------------------------------------------------------|
G |-------------------------------------------------------|
D |-------------------------------------------------------|
A |--2-2-0-0--2-2-0-0--2-2-0-0----------------------------|      repeat as necessary
E |-------------------------------------------------------|

Outro

e |----------------------------------------------------------|
B |----------------------------------------------------------|
G |----------------------------------------------------------|        x2
D |----------------------------------------------------------|
A |----0-2-0--2-3-2-0----0-----------------------------------|
E |--3-----------------3----3-3-3-3-3------------------------|
Tap to rate this tab
# A B C D E F G H I J K L M N O P Q R S T U V W X Y Z