Song name
# A B C D E F G H I J K L M N O P Q R S T U V W X Y Z

The Tony Danza Tapdance Extravaganza - Cliff Burton Surprise tab

Tuning-7 string tuned 1-step down A D G C F A D

----------------------------------------------------------------|
----------------------------------------------------------------|
----------------------------------------------------------------|
----------------------------------------------------------------|
-----------9h10-9------------9h10-9-7-5-5-5-5-5/4---------------|
------9-12--------------9-12----------------------5-7-5/7-5-4-5-|
-7-10--------------7-10-----------------------------------------|


------------15----14--|
---15-----------------|
------14-12----14-----|
-12-------------------|
----------------------|
----------------------|
----------------------|


http://www.myspace.com/tonydanzatapdanceextravaganza
Tap to rate this tab
 
# A B C D E F G H I J K L M N O P Q R S T U V W X Y Z