Song name
# A B C D E F G H I J K L M N O P Q R S T U V W X Y Z

The Toxic Avenger - Escape tab

-------------------------------------------------------------------------------
			     Escape - The Toxic Avenger (The Bloody Beetroots Remix)
-------------------------------------------------------------------------------
http://www.myspace.com/toxavanger
Tabbed by: snowmotion
Email: paulpryan@hotmail.com

Tuning: Standard

Intro:

e|----------------------------------|
B|-5-5-5-5-5-5-5-5-5-5-5-5-5-5-5-5\-|
G|----------------------------------|
D|----------------------------------|
A|----------------------------------|
E|----------------------------------|

Then for the next bit there's two guitars

Guitar 1

e|------------------------------------------------------------|
B|---3-3---3-3---3-3---3---3h5--------3-3---3-3---------------|
G|-----------------------------(x3)-------------E-S-C-A-P-E-!-|
D|-2-----2-----2-----2---2----------2-----2-------------------|
A|------------------------------------------------------------|
E|------------------------------------------------------------|

Guitar 2

e|---------|
B|-5-------|
G|-7-(x28)-|  Listen to the song for the rhythm
D|---------|
A|---------|
E|---------|

At 0:23:

e|---------------------------------|
B|---3-3---3-3---3-3---3---3h5-----|
G|----------------------------(x8)-| The amount of times the E5 power chord is played
D|-2-----2-----2-----2---2---------| varies so mix it up a bit.
A|-2-----2-----2-----2---2---------|
E|-0-----0-----0-----0---0---------|

e|----------------------------------|
B|----------------------------------|
G|-----------------------------(x8)-|
D|---2-0---2-0---2-0--2-x-2-0-------|
A|----------------------------------|
E|-0-----0-----0-----0--------------|

The next part's a bit hard to tab out but I think this is close

e|---------------------------------------------------------------------------|
B|-5b(6)-5-5b(6)-5-5b(7)-5-3-5-7-5-3------8/10-------------------------------|
G|-----------------------------------(x7)------(x4)--------------------------|
D|---------------------------------------------------------------------------|
A|---------------------------------------------------------------------------|
E|---------------------------------------------------------------------------|

That's all there is to it, except figuring out the order it's played in.

Comments and corrections welcome, please rate and enjoy!

************************************

| /   slide up
| \   slide down
| h   hammer-on
| p   pull-off
| ~   vibrato
| +   harmonic
| x   Mute note
| b   Bend
| pb  Pre-bend
| br  Bend release
| pbr Pre-bend release
| brb Bend release bend

************************************
Tap to rate this tab
 
# A B C D E F G H I J K L M N O P Q R S T U V W X Y Z