Guitaretab - guitar tabs
Song name
# A B C D E F G H I J K L M N O P Q R S T U V W X Y Z

The Trax - Paradox tab

Main Riff (distorted):
|------------------------------------------|
|------------------------------------------|
|------------------------------------------|
|--0-0-XX-0----/8-7-5--3-3-XX-1----XX-3-1--|
|--0-0-XX-0----/8-7-5--3-3-XX-1----XX-3-1--|
|--0-0-XX-0----/8-7-5--3-3-XX-1----XX-3-1--|

Verse Riff (distorted, muted slightly):
|---------------------------------------|
|---------------------------------------|
|---------------------------------------|
|--0--XX-0--XX-0--0--XX-0--XX-1---------|
|--0--XX-0--XX-0--0--XX-0--XX-1-(hold)--|
|--0--XX-0--XX-0--0--XX-0--XX-1---------|
[ Tab from: http://www.guitaretab.com/t/the-trax/169445.html ]
Bridge Riff (distorted):
|-----------------------------------------|
|-----------------------------------------|
|-----------------------------------------|
|--3--------/10--------8--------1---------|
|--3-(hold)-/10-(hold)-8-(hold)-1-(hold)--|
|--3--------/10--------8--------1---------|

Breakdown Riff (distorted):
|-----------------------------|
|-----------------------------|
|-----------------------------|
|--0-0-1--0-0-0-1--0-1--------|        |--1X-1X-1X--|
|--0-0-1--0-0-0-1--0-1-(hold)-| End on |--1X-1X-1X--|
|--0-0-1--0-0-0-1--0-1--------|        |--1X-1X-1X--|

Order of parts:

Main Riff (4X)
Verse Riff (4X)
Main Riff (4X)
Verse Riff (4X)
Verse Riff (4X)
Bridge Riff (2X)
--(break in music)--
Breakdown Riff (6X)
Bridge Riff (2X)
Main Riff (4X)

http://www.thetrax.com/
×
Paradox