Song name
# A B C D E F G H I J K L M N O P Q R S T U V W X Y Z

The Treatment - Nothing To Lose But Our Minds tab

(/) Slide Up  (\) Slide Down  (h) Hammer On  (p) Pull Off  (b) Bend (r) Release (v) Vibrato


E|-----------------------9b10------------------------------------|
B|-------------------10--------10--------------------------------|
G|----------6--7--9----------------9/11--9--11\7--7--6--7--9--9--|
D|--7v--7v-------------------------------------------------------|
A|---------------------------------------------------------------|
E|---------------------------------------------------------------|



E|---------------------------9--10--12--12/17--------------------------------|
B|-------------------10--10--------------------17b19--17r19--15--14--15--17--|
G|----------6--7--9----------------------------------------------------------|
D|--7v--7v-------------------------------------------------------------------|
A|---------------------------------------------------------------------------|
E|---------------------------------------------------------------------------|

E|-----|
B|-----|
G|-----|
D|--14-|
A|-----|
E|-----|

http://www.facebook.com/TheTreatmentOfficial
Tap to rate this tab
# A B C D E F G H I J K L M N O P Q R S T U V W X Y Z