Song name
# A B C D E F G H I J K L M N O P Q R S T U V W X Y Z

The Treatment - The Doctor tab

The Treatment
   -    The Doctor

Transcribed by Michael Lewis
   -    Twitter: @MyCool_Lewis

Notes:
   -    Tune down one half step

Main Riff
eb|--------------------------------------------------------|
Bb|--------------------------------------------------------|
Gb|-------------2------------------------------2-----------|
Db|-5-2---2-----2-2---2-----5-7-5--5-2---2-----2-2---2-----|
Ab|-5-2---2-----0-2---2-----5-7-5--5-2---2-----0-2---2-----|
Eb|-3-0-0-0-0-0---0-0-0-0-0-3-5-3--3-0-0-0-0-0---0-0-0-0-0-|
        .   . .     .   . .            .   . .     .   . .

Main Riff Ending I
eb|-3--5--|
Bb|-3--5--|
Gb|-------|
Db|-5--7--|
Ab|-5--7--|
Eb|-3--5--|

Main Riff Ending II
eb|--------|
Bb|--------|
Gb|-----7--|
Db|-5---7--|
Ab|-5---5--|
Eb|-3-0----|
      .

Bridge (Oh yeah. Alright.)
eb|---------------------------------------------------------------|
Bb|---------------------------------------------------------------|
Gb|---------------------------------------------------------------|
Db|-----0-------------------------------0-2-----------2-----5--7--|
Ab|-1-2-------------2-1-0-----------1-2---------------------5--7--|
Eb|-------0-0-0-0-0-------0-0-0-0-0---------0-0-0-0-0---0-0-3--5--|
            . . . .         . . . .         . . . . .   . .

Chorus (Let the good times roll...)
eb|-----------------------------------------------------------------|
Bb|-----------------------------------------------------------------|
Gb|-2-2-2-2-2-2-2-2-----------------4-4-4-4-4-4-4-4-4-4-4-4-4-4-4-4-|
Db|-2-2-2-2-2-2-2-2-5-5-5-5-5-5-5-5-4-4-4-4-4-4-4-4-4-4-4-4-4-4-4-4-|
Ab|-0-0-0-0-0-0-0-0-5-5-5-5-5-5-5-5-2-2-2-2-2-2-2-2-2-2-2-2-2-2-2-2-|
Eb|-----------------3-3-3-3-3-3-3-3---------------------------------|

eb|-----------------------------------------------------------------|
Bb|-----------------------------------------------------------------|
Gb|-2-2-2-2-2-2-2-2-----------------4-4-4-4-4-4-4-4-7-7-7-7-7-7-7-7-|
Db|-2-2-2-2-2-2-2-2-5-5-5-5-5-5-5-5-4-4-4-4-4-4-4-4-7-7-7-7-7-7-7-7-|
Ab|-0-0-0-0-0-0-0-0-5-5-5-5-5-5-5-5-2-2-2-2-2-2-2-2-5-5-5-5-5-5-5-5-|
Eb|-----------------3-3-3-3-3-3-3-3---------------------------------|

Pre Solo (Well can you hear the angels calling)
eb|-------------------------------|
Bb|-------------------------------|
Gb|-------------------------------|
Db|-------------------------2-1-0-|
Ab|----4-3---0-1-2----4-3---------|
Eb|-2------2-------2------2-------|

Finale
eb|--------------------|
Bb|--------------------|
Gb|------------2-------|
Db|-5-2---2----2-2--2--|
Ab|-5-2---2----0-2--2--|
Eb|-3-0---0--0---0--0--|

Legend:
p - pull off
h - hammer on
fb - full bend (one whole step)
r - release bend
x - dead note
/\ - slide up, down
. - palm mute

Tap to rate this tab
# A B C D E F G H I J K L M N O P Q R S T U V W X Y Z