Song name
# A B C D E F G H I J K L M N O P Q R S T U V W X Y Z

The Treatment - Nothing To Lose But Our Minds tab

The Treatment
   -    Nothing To Lose But Our Minds

Transcribed by Michael Lewis
   -    Twitter: @MyCool_Lewis

Notes:
   -    Tune down one half step

Intro Lead
eb|------------------------9hbr-------------------------------|
Bb|-------------------10--------10----------------------------|
Gb|-----------------9---------------9fb-9--11-----------------|
Db|-----------11-12----------------------------12-11--12--14--|
Ab|-12---12---------------------------------------------------|
Eb|-----------------------------------------------------------|

eb|------------------------9h10-12/17--------------------------------|
Bb|-------------------10---------------17fbr-fb-15-14tr15-15--17-----|
Gb|-----------------9------------------------------------------------|
Db|-----------11-12----------------------------------------------14--|
Ab|-12---12----------------------------------------------------------|
Eb|------------------------------------------------------------------|

Verse
eb|---------------------------------------------------------|
Bb|---------------------------------------------------------|
Gb|------------------------x--2--4---4-4-4--x-4/6-6-6--x----|
Db|-4---4-4-4--x--4---4-4--x--2--4---4-4-4--x-4/6-6-6--x-7--|
Ab|-4---4-4-4--x--4---4-4--x--0--0h2-2-2-2--x-2/4-4-4--x-7--|
Eb|-0h2-2-2-2--x--0h2-2-2--------------------------------5--|

eb|---------------------------------------------------------|
Bb|---------------------------------------------------------|
Gb|------------------------x--2--4---4-4-4--x-4/6-6-6--x-9--|
Db|-4---4-4-4--x--4---4-4--x--2--4---4-4-4--x-4/6-6-6--x-7--|
Ab|-4---4-4-4--x--4---4-4--x--0--0h2-2-2-2--x-2/4-4-4--x-7--|
Eb|-0h2-2-2-2--x--0h2-2-2-----------------------------------|

Chorus/Solo Rhythm (Nothing to lose, but our minds...)
eb|-------------------------------------------------------|
Bb|-------------------------------------------------------|
Gb|---------------------------------7-7-7-7-6-6-6-6-4-4-4-|
Db|-7-7-7-7-6-6-6-6-4-4-4-4-2-2-2-2-7-7-7-7-7-7-7-7-4-4-4-|
Ab|-7-7-7-7-6-6-6-6-4-4-4-4-2-2-2-2-5-5-5-5-4-4-4-4-2-2-2-|
Eb|-5-5-5-5-4-4-4-4-2-2-2-2-0-0-0-0-----------------------|

eb|----------|
Bb|----------|
Gb|-6---7-9--|
Db|-6---7-9--|
Ab|-4---5-7--|
Eb|----------|

Bridge (You know if we could only walk together...)
eb|-------------------------------------------------------------|
Bb|-------------------------------------------------------------|
Gb|-7-7-7-7-6-6-6-6-4-4-4-4-----7-7-7-7-6-6-6-6-4-4-4-4-9-9-9-9-|
Db|-7-7-7-7-7-7-7-7-4-4-4-4-2---7-7-7-7-7-7-7-7-4-4-4-4-9-9-9-9-|
Ab|-5-5-5-5-4-4-4-4-2-2-2-2-2---5-5-5-5-4-4-4-4-2-2-2-2-7-7-7-7-|
Eb|-------------------------0-----------------------------------|

eb|-----------------------------------------------------|
Bb|-----------------------------------------------------|
Gb|--------------------5-------------------------5------|
Db|-7--7-5--5-4--4-5h7----7-5-7--7-5--5-4--4-5h7----7-5-|
Ab|-----------------------------------------------------|
Eb|-----------------------------------------------------|

eb|-----------------------------------------------------|
Bb|-----------------------------------------------------|
Gb|--------------------7-------------------------7------|
Db|-9--9-7--7-6--6-7h9----9-7-9--9-7--7-6--6-7h9----9-7-|
Ab|-----------------------------------------------------|
Eb|-----------------------------------------------------|

Outro Lead
eb|------------------------9h10-12/17--------------------------------|
Bb|-------------------10---------------17fbr-fb-15-14tr15-15--17-----|
Gb|-----------------9------------------------------------------------|
Db|-----------11-12----------------------------------------------14--|
Ab|-12---12----------------------------------------------------------|
Eb|------------------------------------------------------------------|

Legend:
p - pull off
h - hammer on
fb - full bend (one whole step)
r - release bend
x - dead note
/\ - slide up, down
. - palm mute
tr - trill
Tap to rate this tab
 
# A B C D E F G H I J K L M N O P Q R S T U V W X Y Z