The Tremolo Beer Gut - Junkie Tools tab

i haven't the song in details, but nearly all the lead guitar parts
are tabbed. the rhythm guitar is not tabbed for the whole song.

h = hammer on
r = let ring
w = whammy

lead guitar:
e---------------------------|
b---------------------------|
g---------------------------|
d--2-----5-2-----0h2-----2ww|
a----5-2-----0h2-----0h2-2ww|
E------------------------0ww|

rhythm guitar:
e-x-x-x-|--------|  |-----------------|
b-x-x-x-|--------|  |-----------------|
g-x-x-x-|--------|  |-----------------|
d-x-x-x-|--------|x8|-----------------|
a-x-x-x-|--------|  |-----------------|
E-x-x-x-|0-0-3-5-|  |-2-2-2-2-1-1-1-1-|

lead guitar:
e-------------------------|
b-------------------------|
g-------------------------|
d---2-----5-2-----0h2-----|
a-----5-2-----0h2-----0h2-|
E-0-----------------------|

rhythm guitar: play the last part when the lead guitar play the last notes.
e-5-5-4--5-5-4--5-5-4--5-5-4-|--5-4-3-2--5-4-3-2-|
b-5-5-4--5-5-4--5-5-4--5-5-4-|-------------------|
g----------------------------|-------------------|
d----------------------------|-------------------|
a----------------------------|-------------------|
E----------------------------|-------------------|

lead guitar:
e-------------------------------------------------------|
b-------------------------------------------------------|
g-------------------------------------------------------|
d--7777777777-5555-77-33333333-22222222---------------2w| x2
a---------------------------------------333333-22222--0w|
E-------------------------------------------------------|

lead guitar:
e-----------------------|
b-----------------------|
g-----------------------|
d---------------------2w|
a--33333333-22222222--0w|
E-----------------------|


lead guitar:                             (x2)                  (x4)
e-------------------------|--------------------------x--|-------------x--|
b-------------------------|--------------2b2b2b2b2b2-0w-|2b2b2b2b2b2b-0w-|
g-------------------------|--------------2b2b2b2b2b2-0w-|2b2b2b2b2b2b-0w-|
d---2-----5-2-----0h2-----|---------2-5--2b2b2b2b2b2-2w-|2b2b2b2b2b2b-2w-|
a-----5-2-----0h2-----0h2-|--2--2-5------------------2w-|-------------2w-|
E-0-----------------------|--0--0r-------------------0w-|-------------0w-|
Tap to rate this tab
 
# A B C D E F G H I J K L M N O P Q R S T U V W X Y Z