Song name
# A B C D E F G H I J K L M N O P Q R S T U V W X Y Z

The Trews - Ishmael And Maggie tab

Tabbed By: Matt Mauro

ok this is my first tab so... sorry if there's any mistakes
i got it from studying a live video of this song on youtube... 
here's the link if you want to see it

http://www.youtube.com/watch?v=B8atB5goWd0&feature=related

-------------------------------------------
       Ishmael and Maggie - The Trews
-------------------------------------------

Main Riff
e -------------------------------------|
B -------------------------------------|
G -------------2-----------------------|
D ---------0h2------0-2----------------|
A -0-0---4-----------------------------|
E -------------------------------------|

Hello my name is Ishmael, 
forget the one about the whale
i'll tell you of a broken hearted sailor
Maggie took my loyalty 
I treated her like royalty 
What starts out with such promise ends in failure

*don't play chords for intro verse*
*if there are two guitars present, one plays the main riff while other does chords*
Verse/Chorus chords

e --0----------------2--/--4---0----------------2--/--4---|
B --2----------------3--/--5---2----------------3--/--5---|
G --2----------------2--/--4---2----------------2--/--4---|
D --2----------------0-----0---2----------------0-----0---|
A --0--------------------------0--------------------------|
E --------------------------------------------------------|
oh my love, i can't stand to be alone
I been drinkin' too much i better go home
And I think here I'm better off alone 
but I been thinkin too much I better go home

Bridge chords

e --2---0---2---0---0----|
B --3---2---3---2---1----|
G --2---2---2---2---0----|
D --0---2---0---2---2----|
A ------0-------0---3----|
E ------------------0----| 
   Lie Lie Lie Lie Lie

Second Bridge Chords

e -------------------------2-/-4---0------|
B -------------------------3-/-5---2------|
G -------------------------2-/-4---2------|
D -------------------------0-/-0---2------|
A ---------------------------------0------|
E ----------------------------------------|
   We're all broken hearted here 
   We're all broken hearted here 
   We're all broken hearted here 
e -----------------x-x-x------------|
B -----------------x-x-x------------|
G -----------------x-x-x------------|
D -----------------x-x-x------------|
A -----------------x-x-x------------|
E -----------------x-x-x------------|
   We're all broken

     Main Riff
Hello my name is Ishmael 
forget the one about the whale 
I'll tell you of a broken hearted sailor 
Maggie took my loyalty 
I treated her like royalty 
What starts out with such promise ends in failure 

     Verse/Chorus
Oh my love I can't stand to be alone 
I been drinkin too much I better go home 
And I think here I'm better off alone 
but I been thinkin too much I better go home 

     Verse/Chorus
All hail the queen of cruelty 
She has duly been annointed 
These final words her majesty had to say 
He who expects nothing never will be disappointed 
Nothings what she left me so i guess im ok 

     Verse/Chorus
oh my love i can't stand to be alone 
I been drinkin too much i better go home 
And i think here we all stand alone 
but i been thinkin too much I better go home 

     Bridge
Lie lie lie lie lie
Lie lie lie lie lie

     Verse/Chorus 
A promise made to a tab unpaid 
is home my way to a bed unmade 
A fool to think that i could ever change her 
a king upon my bar stool throne 
a vow to never drink alone 
I only drink with friends or total strangers 

     Second Bridge
We're all broken hearted here 
We're all broken hearted here 
We're all broken hearted here 
We're all broken 

     Verse/Chorus
Oh my love i can't stand to be alone 
and i been drinkin too much i better go home 
and i think here we all stand alone 
but i been thinkin too much i better go home 
i better go home 
i better go home 
i better go home 
i better go home 
i better go home

End on an "A" chord


thanks for checking out my tab... hope it's to your liking, have fun playing either way
Tap to rate this tab
 
# A B C D E F G H I J K L M N O P Q R S T U V W X Y Z