Song name
# A B C D E F G H I J K L M N O P Q R S T U V W X Y Z

The Trews - Dark Highway tab

Help us improve GuitareTab! Take a short survey!
-------------------------------------------------------------------------------
			     Dark Highway - The Trews
-------------------------------------------------------------------------------
Tabbed by: Soccerguy
Email:colinpowell111@hotmail.com

Tuning:EADGBE

Intro
e|----------------------|
B|-----------7----------|
G|-----------7-7--------|
D|-7h9-9-7h9-----9-7----|
A|-7---7-7--------------|
E|----------------------|

Verse
e|----------------------------------------------------------|
B|----------------------------------------------------------|
G|----------------------------------------------------------|
D|--9---11--------------------------------------------------|
A|--7---7----9-----11---------------------------------------|
E|-----------7-----7----------------------------------------|

Chorus
e|-----------------------------------------------|
B|-----------------------------------------------|
G|----7---9--------7-----77-99----77-99----------|
D|----7---9--9--7h9-9p7--77-99-99-77-99----------|
A|----5---7--9-9---------55-77----55-77----------|
E|-----------7-----------------------------------|

2nd Verse
e|-----------------------------------------------|
B|-----------------------------------------------|
G|-9-9-7-6--9-99-7-6---4-4-2-1---4-44-2-1--------|
D|--------9---------9---------4---------4--------|
A|-----------------------------------------------|
E|-----------------------------------------------|

Interlude
e|--------------------------------------------------------------------|
B|--------------------------------------------------------------------|
G|--4-44-2-2-0-0-0-2-2--4-44-6b6-4-767-979--11-11-11-12b12-11-12-11-12|
D|--------------4---4-------------------------------------------------|
A|--------------------------------------------------------------------|
E|--------------------------------------------------------------------|

e|------------------------------------------------------------------|
B|------------------------------------------------------------------|
G|--141214--14-14-14-14-14-14-14-14-12-12-12-12-12-12-12-12---------|
D|----------15-15-15-15-15-15-15-15-13-13-13-13-13-13-13-13---------|
A|------------------------------------------------------------------|
E|------------------------------------------------------------------|

Guitar 1
e|----------------------|
B|----------------------|
G|--9-77------777777777-|
D|--9-77------777777777-|
A|--7-55------555555555-|
E|----------------------|
Guitar 2
e|-----------------|
B|-----------------|
G|-----------------|
D|--/12-11--/9-7---|
A|-----------------|
E|-----------------|

Outro
e|-------------------------------------------------------|
B|------------------10-10--------------------------------|
G|--77-99-----77-99--------77-99--4----------------------|
D|--77-99--99-77-99--------77-99--4----------------------|
A|--55-77-----55-77--------55-77--2----------------------|
E|-------------------------------------------------------|

| /  slide up
| \  slide down
| h  hammer-on
| p  pull-off
| ~  vibrato
| +  harmonic
| x  Mute note
| b  Bend
===============================================================================
Related for Dark Highway tab