Song name
# A B C D E F G H I J K L M N O P Q R S T U V W X Y Z

The Trews - Hollis And Morris tab

Hollis And Morris
The Trews
House Of Ill Fame (2003)

Hollis And Morris: written by Gordie Johnson, Colin Macdonald,
John Angus Macdonald, Jack Syperek

Note: This is most of the song, I don't have a wah pedal, so it 
was hard to tab out the solo, and rather then get it wrong, I 
just left it out.

GTR I - Standard Tuning (e,B,G,D,A,E)
GTR II - Standard Tuning (e,B,G,D,A,E)

Verse                      
  GTR1                   12x                        2x
e|-------------------------|-------------------------|
B|-------x-x-8-x-8-x-x-8-8-|-------x-x10-x-8-x-x-8-8-|
G|-------x-x-7-x-7-x-x-7-7-|-------x-x-9-x-7-x-x-7-7-|
D|-------x-x-5-x-5-x-x-5-5-|-5/7-7-x-x-7-x-5-x-x-5-5-|
A|-5/7-7-x-x---------------|-------------------------|
E|-------------------------|-------------------------|
 |                                                    
 |GTR2                   12x                        2x
e|-------------------------|-------------------------|
B|-------------------------|--10-10-10---------------|
G|-------------------------|---9--9--9---------------|
D|-------------------------|---7--7--7---------------|
A|-------------------------|-------------------------|
E|-------------------------|-------------------------|
                                                                                 

  GTR1                    1x                            1x
e|-------------------------|-----------------------------|
B|-------x-x12-x12-x-x1212-|-----------------------------|
G|-------x-x11-x11-x-x1111-|--4--------------------------|
D|-7/9-9-x-x-9-x-9-x-x-9-9-|-----7--5--4--7--5-----------|
A|-------------------------|--------------------7--5-----|
E|-------------------------|-------------------------7\0-|
 |                            x  x  x  x  x  x  x  x xxx
 |GTR2                    1x                            1x
e|-------------------------|-----------------------------|
B|--12---------------------|-----------------------------|
G|--11---------------------|-----------------------------|
D|---9---------------------|-----------------------------|
A|-------------------------|-14-12-10----12-10-----------|
E|-------------------------|----------14-------12-10-7/0-|
                              x  x  x  x  x  x  x  x xxx  

Verse 2

  GTR1                   12x                        2x
e|-------------------------|-------------------------|
B|-------x-x-8-x-8-x-x-8-8-|-------x-x10-x-8-x-x-8-8-|
G|-------x-x-7-x-7-x-x-7-7-|-------x-x-9-x-7-x-x-7-7-|
D|-------x-x-5-x-5-x-x-5-5-|-5/7-7-x-x-7-x-5-x-x-5-5-|
A|-5/7-7-x-x---------------|-------------------------|
E|-------------------------|-------------------------|
 |                                                    
 |GTR2                   12x                        2x
e|-------------------------|-------------------------|
B|--8-8-8------------------|--10-10-10---------------|
G|--7-7-7------------------|---9--9--9---------------|
D|--5-5-5------------------|---7--7--7---------------|
A|-------------------------|-------------------------|
E|-------------------------|-------------------------|

  GTR1                    1x                            1x
e|-------------------------|-----------------------------|
B|-------x-x12-x12-x-x1212-|-----------------------------|
G|-------x-x11-x11-x-x1111-|--4--------------------------|
D|-7/9-9-x-x-9-x-9-x-x-9-9-|-----7--5--4--7--5-----------|
A|-------------------------|--------------------7--5-----|
E|-------------------------|-------------------------7\0-|
 |                            x  x  x  x  x  x  x  x xxx
 |GTR2                    1x                            1x
e|-------------------------|-----------------------------|
B|--12---------------------|-----------------------------|
G|--11---------------------|-----------------------------|
D|---9---------------------|-----------------------------|
A|-------------------------|-14-12-10----12-10-----------|
E|-------------------------|----------14-------12-10-7/0-|
                              x  x  x  x  x  x  x  x xxx  

  GTR1                       1x
e|----------------------------|
B|----------------------------|
G|--4-------------------------|
D|-----7--5--4--7--5----------|
A|--------------------7--5--7-|
E|----------------------------|
 |  x  x  x  x  x  x  x  x  x
 |GTR2                       1x
e|----------------------------|
B|----------------------------|
G|----------------------------|
D|----------------------------|
A|-14-12-10----12-10----------|
E|----------14-------12-10-12-|
    x  x  x  x  x  x  x  x  x

Pre Solo

  GTR1                    4x
e|-------------------------|
B|-------x-x-8-x-8-x-x-8-8-|
G|-------x-x-7-x-7-x-x-7-7-|
D|-------x-x-5-x-5-x-x-5-5-|
A|-5/7-7-x-x---------------|
E|-------------------------|
 |                                                    
 |GTR2                    4x
e|-------------------------|
B|--8-8-8------------------|
G|--7-7-7------------------|
D|--5-5-5------------------|
A|-------------------------|
E|-------------------------|


Solo

  GTR1
e|-------------------------|-------------------------|-----------------------|
B|-------------------------|-------------------------|-----------------------|
G|-------------------------|-------------------------|-----------------------|
D|-------------------------|-------------------------|-----------------------|
A|-------------------------|-------------------------|-----------------------|
E|-------------------------|-------------------------|-----------------------|
 |
 |GTR2                   12x                        2x                      1x
e|-------------------------|-------------------------|-----------------------|
B|--8-8-8------------------|--10-10-10---------------|--12-------------------|
G|--7-7-7------------------|---9--9--9---------------|--11-------------------|
D|--5-5-5------------------|---7--7--7---------------|---9-------------------|
A|-------------------------|-------------------------|-----------------------|
E|-------------------------|-------------------------|-----------------------|


  GTR1
e|-----------------------------|----------------------------|
B|-----------------------------|----------------------------|
G|-----------------------------|----------------------------|
D|-----------------------------|----------------------------|
A|-----------------------------|----------------------------|
E|-----------------------------|----------------------------|
 |
 |GTR2                        1x                           1x
e|-----------------------------|----------------------------|
B|-----------------------------|----------------------------|
G|-----------------------------|----------------------------|
D|-----------------------------|----------------------------|
A|-14-12-10----12-10-----------|-14-12-10----12-10----------|
E|----------14-------12-10-7/0-|----------14-------12-10-12-|
    x  x  x  x  x  x  x  x xxx    x  x  x  x  x  x  x  x  x

Verse 3

  GTR1                    7x                        2x
e|-------------------------|-------------------------|
B|-------------------------|-------x-x10-x-8-x-x-8-8-|
G|-------------------------|-------x-x-9-x-7-x-x-7-7-|
D|-------------------------|-5/7-7-x-x-7-x-5-x-x-5-5-|
A|-------------------------|-------------------------|
E|-------------------------|-------------------------|
 |                                                    
 |GTR2                    7x                        2x
e|-------------------------|-------------------------|
B|--8-8-8------------------|--10-10-10---------------|
G|--7-7-7------------------|---9--9--9---------------|
D|--5-5-5------------------|---7--7--7---------------|
A|-------------------------|-------------------------|
E|-------------------------|-------------------------|

  GTR1                    1x                            1x
e|-------------------------|-----------------------------|
B|-------x-x12-x12-x-x1212-|-----------------------------|
G|-------x-x11-x11-x-x1111-|--4--------------------------|
D|-7/9-9-x-x-9-x-9-x-x-9-9-|-----7--5--4--7--5-----------|
A|-------------------------|--------------------7--5-----|
E|-------------------------|-------------------------7\0-|
 |                            x  x  x  x  x  x  x  x xxx
 |GTR2                    1x                            1x
e|-------------------------|-----------------------------|
B|--12---------------------|-----------------------------|
G|--11---------------------|-----------------------------|
D|---9---------------------|-----------------------------|
A|-------------------------|-14-12-10----12-10-----------|
E|-------------------------|----------14-------12-10-7/0-|
                              x  x  x  x  x  x  x  x xxx  

  GTR1                       1x
e|----------------------------|
B|----------------------------|
G|--4-------------------------|
D|-----7--5--4--7--5----------|
A|--------------------7--5--7-|
E|----------------------------|
 |  x  x  x  x  x  x  x  x  x
 |GTR2                       1x
e|----------------------------|
B|----------------------------|
G|----------------------------|
D|----------------------------|
A|-14-12-10----12-10----------|
E|----------14-------12-10-12-|
    x  x  x  x  x  x  x  x  x

Pre Solo 2

  GTR1                    4x
e|-------------------------|
B|-------x-x-8-x-8-x-x-8-8-|
G|-------x-x-7-x-7-x-x-7-7-|
D|-------x-x-5-x-5-x-x-5-5-|
A|-5/7-7-x-x---------------|
E|-------------------------|
 |                                                    
 |GTR2                    4x
e|-------------------------|
B|--8-8-8------------------|
G|--7-7-7------------------|
D|--5-5-5------------------|
A|-------------------------|
E|-------------------------|

| /  slide up
| \  slide down
| h  hammer-on
| p  pull-off
| ~  vibrato
| +  harmonic
| x  Mute note
===============================================================================
Tap to rate this tab
 
# A B C D E F G H I J K L M N O P Q R S T U V W X Y Z