Song name
# A B C D E F G H I J K L M N O P Q R S T U V W X Y Z

The Trews - Cant Stop Laughing tab

-------------------------------------------------------------------
	         Can't Stop Laughing - The Trews
-------------------------------------------------------------------
Tabbed by:Soccerguy
Email:colinpowell111@hotmail.com
              (oneoneone)
Tuning:Standard

   D      G      A         D      G     A
e|----------------------------------------------------------------|
B|----------------------------------------------------------------|
G|--------------------------------4-------------------------------|
D|-----4--5-4------------------4---7-5-4-7-5-4--------------------|
A|--5-7--5---7-5-4-5-7-4----5-7--5------------7-------------------|
E|----------------------------------------------------------------|

e|----------------------------------------------------------------|
B|-3-5-7-10-7-5-7-5-7-5-7-5---------------------------------------|
G|-2-7-7-7--7-7-7-7-7-7-7-7---------------------------------------|
D|----------------------------------------------------------------|
A|----------------------------------------------------------------|
E|----------------------------------------------------------------|
Verse
D A
Prechorus
D G A
D A
Chorus
e|-----------------|--------------------------------------------------|
B|-----------------|--------------------------------------------------|
G|-----------------|--------------------------------------------------|
D|-77977-----------|-2-5----------------------------------------------|
A|-55555-9-77977797|-2-5----------------------------------------------|
E|-------7-55555555|-0-3----------------------------------------------|

e|----------------------------------------------------------------|
B|----------------------------------------------------------------|
G|-----------------------------1----------------------------------|
D|----1--2-1----------------1---4-2-1-4-2-1-----------------------|
A|-2-4--2---4-2-1-2-4-1--2-4--2------------4----------------------|
E|----------------------------------------------------------------|

            D5 C#5  B5  A5
e|----------------------------------------------------------------|
B|-3-5-7-10-7-5-7-5-7-5-7-5---------------------------------------|
G|-2-7-7-7--7-7-7-7-7-7-7-7---------------------------------------|
D|----------------------------------------------------------------|
A|----------------------------------------------------------------|
E|----------------------------------------------------------------|
Ending
e|----------------------------------------------------------------|
B|----------------------------------------------------------------|
G|-7-4-2---7------------------------------------------------------|
D|-7-4-2-5-7------------------------------------------------------|
A|-5-2-0-5-5------------------------------------------------------|
E|-------3--------------------------------------------------------|


| /  slide up
| \  slide down
| h  hammer-on
| p  pull-off
| ~  vibrato
| +  harmonic
| x  Mute note
===============================================================================
Tap to rate this tab
 
# A B C D E F G H I J K L M N O P Q R S T U V W X Y Z