Song name
# A B C D E F G H I J K L M N O P Q R S T U V W X Y Z

The Trews - Hopeless tab

This is my first tab. I saw one on here for this song already but this is how I play it. 
have to listen to the song to get the rhythm but here are the chords.

Verse & Chorus:
e|--0--0--0--0--|
B|--0--0--0--0--|
G|--6--2--4--3--|
D|--6--2--4--4--|
A|--4--0--2--4--|
E|--x--x--x--x--|

Solo: x2
e|---10-12-10-9---------10-12-10-9-|
B|-9------------10----9------------|
G|---------------------------------|
D|---------------------------------|
A|---------------------------------|
E|---------------------------------|

There you have it.
Thanks
Tap to rate this tab
# A B C D E F G H I J K L M N O P Q R S T U V W X Y Z