Song name
# A B C D E F G H I J K L M N O P Q R S T U V W X Y Z

The Trews - Sing Your Heart Out tab

This is not my work, it was posted as a comment by Jamie69, in another version of this song.
I take no credit for the work done, and all compliment's should be directed towards him.
I think this version is much more accurate than other's previously posted, and it should 
available to everyone to see.

Capo (5) Fifth fret
Note's are relative to the capo.
Listen to the song to get the rythym.

INTRO
e ]--9---4-7-2-5-0-4-0--0-0-0-0-0-0-0-0-0-0-0--0-0-0-0---------|
B ]--0---0-0-0-0-0-0-4--3-3-3-2-2-2-2-0-0-2-0--0-0p2-0---------|
G#]--0---0-0-0-0-0-0-0--0-0-0-1-1-1-1-0-0-1-0--0-0p1-0---------|
E ]--9---4-7-2-5-0-4-0--0-0-0-0-0-0-0-0-0-0-0--0-0-0-0---------|
B ]-(0)--------------4--3-3-3-2-2-2-2-0-0-2-0--0-0p2-0---------|
E ]-(0)-------------(0)------------------------0-0-0-0---------|

VERSE:
Strum
e ]-----(0)---0-0---0-0---(0)--0-0---0-0---|
B ]-----(0)---0-0---0-0---(0)--0-0---0-0---|
G#]----(0)---1p0---1p0---(0)--1p0---1p0----|
E ]-----(0)---0-0---0-0---(0)--0-0---0-0---|
B ]-----(0)---2p0---2p0---(0)--2p0---2p0---|
E ]-----(0)---0-0---0-0---(0)--0-0---0-0---|

e ]-----(0)---0-0-(0)---0-0-0--0-0-0---0-0-0---0-0-0------|
B ]-----(2)---2-0-(0)---9-9-9-/7-7-7---0-0-0---0-0-0------|
G#]----(1)---1p0-(0)---0-0-0-/0-0-0---0-0-0---0-1p0-------|
E ]-----(0)---0-0-(0)---0-0-0--0-0-0---0-0-0---0-0-0------|
B ]-----(2)---2p0-(0)---9-9-9--7-7-7---0-0-0---0-2p0------|
E ]-----(0)---0---(0)---0-0-0--0-0-0---0-0-0---0-0-0------|

PRECHORUS:
You deserve the best...
On a night like this...
e ]-----(0)---(0)---(0)---(0)--0-0-------|
B ]-----(5)---(4)---(3)---(2)--0-0-------|
G#]-----(0)---(0)---(0)---(1)--1p0-------|
E ]-----(0)---(0)---(0)---(0)--0-0-------|
B ]-----(5)---(4)---(3)---(2)--2p0-------|
E ]-----(0)---(0)---(0)---(0)--0-0-------|

PRECHORUS 2:
You're my motorcycle mama...
e ]-----(0)---(0)---(0)---(0)---(0)--0-0-------|
B ]-----(5)---(3)---(3)---(2)---(0)--2-0-------|
G#]-----(0)---(0)---(0)---(1)---(0)--1p0-------|
E ]-----(0)---(0)---(0)---(0)---(0)--0-0-------|
B ]-----(5)---(3)---(3)---(2)---(0)--2p0-------|
E ]-----(0)---(0)---(0)---(0)---(0)--0-0-------|
Tap to rate this tab
# A B C D E F G H I J K L M N O P Q R S T U V W X Y Z