Song name
# A B C D E F G H I J K L M N O P Q R S T U V W X Y Z

The Trews - Will You Wash Away tab

Will You Wash Away - The Trews

Capo 4
This is my first tab, the notes are right but you will have listen to the song for the timing
Intro, Riff 1 Verse
E|---------------------------------------------------|
B|--1--1--1--3--1--1--1------------------------------|
G|--2--2--2--2--2--2--2----4--4--4--4--4--4--4--4----|
D|--2--2--2--2--2--2--2----4--4--4--4--4--5--4--4----|
A|--------------0------------------------------------|
E|---------------------------------------------------|


Verse part 2
E|---------------------3--------------2--3--2--|
B|----1----------------3--------------3--3--3--|
G|------------------------------------2--2--2--|
D|----2----------------------------------------|
A|----3----------------2-----------------------|
E|---------------------3-----------------------|
you need something more, to rest assured..


E|-----------------------------------3--------|
B|--3--3-1--1--1----------3--3-1--1--3--------|
G|--4--4\2--2--2----------4--4\2--2-----------|
D|-------------2------------------------------|
A|-----------------------------------2--------|
E|-----------------------------------3--------|
                 I don't wanna hear you say...


E|--3----------3-----------------3--------2--3--2--|
B|--3----------3--------3--------3--------3--3--3--|
G|----------------------2-----------------2--2--2--|
D|--2----------------------------2-----------------|
A|--3----------2-----------------3-----------------|
E|-------------3-----------------------------------|
  will        you       wash     away....

Bridge:
E|---------------2--|
B|---------------3--|
G|--1------------2--|
D|--2---------------|
A|--2---------------|
E|------------------|
hear the restless waters rise.....
Tap to rate this tab
# A B C D E F G H I J K L M N O P Q R S T U V W X Y Z