Song name
# A B C D E F G H I J K L M N O P Q R S T U V W X Y Z

The Trews - Not Ready To Go tab

Intro

   E
e|-------------------------------------------------|
b|-------------------------------------------------|
g|-9--9------9--9--9------9--9--9------------------|
d|-9--9--11--9--9--9--11--9--9--9---------7-9-11-7-| Repeat 4 times
a|-7--7--7---7--7--7--7---7--7--7--7-9-11--------7-|
e|-------------------------------------------------|

Verse

   E                             A
e|----------------------------------------|
b|-------------------------------14-14-14-|
g|-------------------------------14-14-14-| Repeat 8 times
d|-14-14-14--14-14-14--14-14-14--14-14-14-|
a|-14-14-14--14-14-14--14-14-14--12-12-12-|
e|-12-12-12--12-12-12--12-12-12-----------|

Chorus

e|-----------------|
b|-----------------|
g|-----------------|
d|--------7-9-11-7-|
a|-7-9-11--------7-|
e|-----------------|

... I'm not ready to go

   E
e|-------------------------------------------------|
b|-------------------------------------------------|
g|-9--9------9--9--9------9--9--9------------------|
d|-9--9--11--9--9--9--11--9--9--9---------7-9-11-7-| Repeat 4 times
a|-7--7--7---7--7--7--7---7--7--7--7-9-11--------7-|
e|-------------------------------------------------|

Verse

   E                             A
e|----------------------------------------|
b|-------------------------------14-14-14-|
g|-------------------------------14-14-14-| Repeat 4 times
d|-14-14-14--14-14-14--14-14-14--14-14-14-|
a|-14-14-14--14-14-14--14-14-14--12-12-12-|
e|-12-12-12--12-12-12--12-12-12-----------|

Chorus

e|-----------------|
b|-----------------|
g|-----------------|
d|--------7-9-11-7-|
a|-7-9-11--------7-|
e|-----------------|

... I'm not ready to go

   E
e|-------------------------------------------------|
b|-------------------------------------------------|
g|-9--9------9--9--9------9--9--9------------------|
d|-9--9--11--9--9--9--11--9--9--9---------7-9-11-7-| Repeat 8 times
a|-7--7--7---7--7--7--7---7--7--7--7-9-11--------7-|
e|-------------------------------------------------|

Bridge

   G               A
e|-----------------------------------------------------------------|
b|-----------------------------------------------------------------|
g|-----------------------------------------------------------------|
d|-5-5-5-5-5-5-5-5-7-7-7-7-7-7-7-7-5-5-5-5-5-5-5-5-7-7-7-7-7-7-7-7-| Repeat 2X
a|-5-5-5-5-5-5-5-5-7-7-7-7-7-7-7-7-5-5-5-5-5-5-5-5-7-7-7-7-7-7-7-7-|
e|-3-3-3-3-3-3-3-3-5-5-5-5-5-5-5-5-3-3-3-3-3-3-3-3-5-5-5-5-5-5-5-5-|


-Repeat Intro 4 times

-Outro with Chorus 8 times

Coda:

   E
e|----/--|
b|----/--|
g|-9--/--|
d|-9--/--|
a|-7--/--|
e|-0--/--|
Tap to rate this tab
 
# A B C D E F G H I J K L M N O P Q R S T U V W X Y Z