Song name
# A B C D E F G H I J K L M N O P Q R S T U V W X Y Z

The Trews - Every Inambition tab

Help us improve GuitareTab! Take a short survey!
-----------------------------------------------------------------------------
			     Every Inambition - The Trews
-----------------------------------------------------------------------------
Tabbed by:Steve
Email:(steve_stire@yahoo.com)

Tuning:Standard

Intro:
e|-------------------------------------------------------------------------|
B|-------------------------------------------------------------------------|
G|-2-2---0-0---------------------------------------------------------------|
D|-2-2-------2p0------X4---------------------------------------------------|
A|-0-0-----------3---------------------------------------------------------|
E|-------------------------------------------------------------------------|

Verse:
e|-------------------------------------------------------------------------|
B|-------------------------------------------------------------------------|
G|-2-2-2-2-2-2-2-2-2-2-2-2-2-2-2-2-----------------------------------------|
D|-2-2-2-2-2-2-2-2-2-2-2-2-2-2-2-2-----------------------------------------|
A|-0-0-0-0-0-0-0-0-0-0-0-0-0-0-0-0-----------------------------------------|
E|-------------------------------------------------------------------------|
pm - - - - - - - - - - - - - - - -
then
e|-------------------------------------------------------------------------|
B|-------------------------------------------------------------------------|
G|-2-2---0-0---------------------------------------------------------------|
D|-2-2-------2p0-----------------------------------------------------------|
A|-0-0-----------3---------------------------------------------------------|
E|-------------------------------------------------------------------------|
twice

e|-------------------------------------------------------------------------|
B|-------------------------------------------------------------------------|
G|-7-7-7-7-7-7-7-7-7-7-7-7-7-7-7-7-----------------------------------------|
D|-7-7-7-7-7-7-7-7-7-7-7-7-7-7-7-7-----------------------------------------|
A|-5-5-5-5-5-5-5-5-5-5-5-5-5-5-5-5-----------------------------------------|
E|-------------------------------------------------------------------------|

e|-----------------|-------------------------------------------------------|
B|-----------------|-------------------------------------------------------|
G|-2-2-0-0---------|-2-2-2~~-0---------------------------------------------|
D|-2-2-----2p0-----|-2-2-------2-0-----------------------------------------|
A|-0-0---------3---|-0-0---------------------------------------------------|
E|-----------------|-------------------------------------------------------|
twice

Chorus:
e|-------------------------------------------------------------------------|
B|-------------------------------------------------------------------------|
G|-2-------7-------12------7-----------------------------------------------|
D|-2-------7-------12------7-----------------------------------------------|
A|-0-------5-------10------5-----------------------------------------------|
E|-------------------------------------------------------------------------|

Fill at the end of the chorus:
e|---3b--------------------------------------------------------------------|
B|---3b--------------------------------------------------------------------|
G|-------------------------------------------------------------------------|
D|-------------------------------------------------------------------------|
A|-------------------------------------------------------------------------|
E|-------------------------------------------------------------------------|

sorry don't know the rest.
Related for Every Inambition tab