Song name
# A B C D E F G H I J K L M N O P Q R S T U V W X Y Z

The Trews - So Shes Leaving tab

INTRO
E---------------------------------------------------------------------------|
B---------------------------------------------------------------------------|
G--------------0-------0-2-2--------------0---------------------------------|
D--------------0---0H2-----2--------------0---------------------------------|
A-------0--4H5---------------------0--4H5----4H5P4--------------------------|
E---0H3------------------------0H3-----------------5-5----------------------|

VERSE               CHOURS
E---------------------------------------------------------------------------|
B------------------------------3--3---------3--3----------------------------|
G------2----2---------------2--0--2--2---2--0--2----0-2---------------------|
D------2----2---------------2--0--0--2---2--0--0-0H2--2---------------------|
A------0----0---------------0--x-----0---0--x---------0---------------------|
E--0H3----3--------------------3------------3-------------------------------|

BRIDGE
E---------------------------------------------------------------------------|
B---10101010\8-8-8-8\7-----10-10-10\8-8-------------------------------------|
G---9-9-9-9-\7-7-7-7\6-----9-9-9-9-\7-7-------------------------------------|
D---7-7-7-7-\5-5-5-5\4-----7-7-7-7-\5-5--4b4r4b4r4P0------------------------|
A---------------------------------------------------------------------------|
E---------------------------------------------------------------------------|
Tap to rate this tab
 
# A B C D E F G H I J K L M N O P Q R S T U V W X Y Z