Song name
# A B C D E F G H I J K L M N O P Q R S T U V W X Y Z

The Trews - Yearning tab

Yearning
The Trews

Tabbed by mikey_eff

Standard Tuning

NOTE: Three dashes = 1/8 note


[INTRO]
 D
|------------------------|------------------------|  
|3--------3--------3-----|---7--------3-----3-----|
|2--------4--------5-----|---7--------5-----4-----|  x2
|---0--0-----0--0-----0--|0-----0--0-----0-----0--|
|------------------------|------------------------|
|------------------------|------------------------|

[VERSE -- repeat all 8 bars twice]
"A moment in time"       "Despair anf fear"
"Nothing's ahead"        "You are right here"
 D
|------------------------|------------------------|  
|3--------3--------3-----|---3--------3-----3-----|
|2--------2--------2-----|---2--------2-----2-----|  x2
|---0--0-----0--0-----0--|0-----0--0-----0-----0--|
|------------------------|------------------------|
|------------------------|------------------------|

"Near is the pain"       "Tragedy changing you"
 Em                       G
|------------------------|---3--------3-----3-----|  
|5--------5--------5-----|---3--------3-----3-----|
|4--------4--------4-----|---0--------0-----0-----|
|---0--0-----0--0-----0--|0-----0--0-----0-----0--|
|------------------------|------------------------|
|------------------------|------------------------|

"dear"
 D
|------------------------|------------------------|  
|3--------3--------3-----|---7--------3-----3-----|
|2--------4--------5-----|---7--------5-----4-----|
|---0--0-----0--0-----0--|0-----0--0-----0-----0--|
|------------------------|------------------------|
|------------------------|------------------------|

< lyrics for second half of verse 1 >
 D               D
"Catastrophe"   "Everything's gone"
 D                D
"Nothing today"  "Was agread upon"
 Em                   G
"You had no choice"  "As you watched the curtains being"
 D
"drawn"

[CHORUS -- repeat first four bars twice]
"Hands in the air"       "Prayers and hymns"
"All that was there"     "And what might have been"
 C                        Bm
|------------------------|------------------------|  
|------5--6--------5-----|------3--5--------3-----|
|5-----5--5--------5-----|4-----4--4--------4-----|
|5-----------------------|4-----------------------|
|3-----------------------|2-----------------------|
|------------------------|------------------------|

"Everone's here"         "It's time to begin"
"Is no longer here"      "It's time to begin"
 Em                       D
|------------------------|------------------------|  
|------8--10-------8-----|------7--8--------7-----|
|9-----9--9--------9-----|7-----7--7--------7-----|
|9-----------------------|7-----------------------|
|7-----------------------|5-----------------------|
|------------------------|------------------------|

 "Year --"                "-- ear -- "
 C (strum)                Bm (strum)
|0-----------------------|2-----------------------|  
|1-----------------------|3-----------------------|
|0-----------------------|4-----------------------|
|2-----------------------|4-----------------------|
|3-----------------------|2-----------------------|
|------------------------|------------------------|

 "-- nin'"
 D
|------------------------|------------------------|  
|3--------3--------3-----|---7--------3-----3-----|
|2--------4--------5-----|---7--------5-----4-----|  x2
|---0--0-----0--0-----0--|0-----0--0-----0-----0--|
|------------------------|------------------------|
|------------------------|------------------------|

[VERSE 2 -- lyrics]
The hour is late; It's almost done
Without an end; We can't go on
As dark as it seems; Soon you will see the day's
sun

Perchance to dream; there is the rub
Permanent sleep; nice dreams will come
Try to have faith; to carry you on as you
run

[CHORUS]

< repeat "Yearnin'" at end of second chorus >


[BRIDGE]
"Year --"    "-- nin'     and"
 Em           A     
"hur --"     "-- tin'"
 D            [G]  [D/F#]

"Lear --"    "-- ear -- "
 Em           A
"-- ear --" "-- nin'"
 D           [G]  [D/F#]

"Waiting for where"  "it will take you"
 Em                   A

"Taking all your"    "time"
 D                    [G]  [D/F#]

"Waiting for where"  "it will take you"
 Em                   A

"Taking all your"    "time"
 D                    [G]  [D/F#]


 "Year --"                "-- ear -- "
 C (strum)                Bm (strum)
|0-----------------------|2-----------------------|  
|1-----------------------|3-----------------------|
|0-----------------------|4-----------------------|
|2-----------------------|4-----------------------|
|3-----------------------|2-----------------------|
|------------------------|------------------------|

 "-- nin'"
 D
|------------------------|------------------------|  
|3--------3--------3-----|---7--------3-----3-----|
|2--------4--------5-----|---7--------5-----4-----|
|---0--0-----0--0-----0--|0-----0--0-----0-----0--|
|------------------------|------------------------|
|------------------------|------------------------|
[END BRIDGE]

[SOLO]
< played over the opening riff and the "Yearnin'" >
< part from the chorus                            >

 D                        D  
|------------------------|---^--------------------|  
|7--------8--------10----|---10-10----8--7--5--7--|
|------------------------|------------------------|
|------------------------|------------------------|
|------------------------|------------------------|
|------------------------|------------------------|

 D                        D
|------------------------|------------------------|  
|------------------------|------------------------|
|7--------5--------4-----|---2--------*****-------|  * 1/8 note triplet
|------------------------|------------5-4-0-0-----|
|------------------------|------------------------|
|------------------------|------------------------|

 C                        Bm
|^-----------------------|^-----------------------|  
|5--------5--------3-----|5--------5--------3-----|
|------------------------|------------------------|
|------------------------|------------------------|
|------------------------|------------------------|
|------------------------|------------------------|

 D                        D
|------------------------|------------------------|  
|3---------------------- |/10---------------------|
|2-----------------------|------------------------|
|------------------------|------------------------|
|------------------------|------------------------|
|------------------------|------------------------|


[CHORUS]

< follow last chorus with three additional        > 
< "Yearnin'"s and the intro riff once             >
<                                                 >
< End on D                                        >
Tap to rate this tab
# A B C D E F G H I J K L M N O P Q R S T U V W X Y Z