Song name
# A B C D E F G H I J K L M N O P Q R S T U V W X Y Z

The Trews - I Cant Say tab

The Trews
I cant Say

i am loving this tune!! i've got most of the song figured out...here we go

this is the intro and first part of the verse:


If you break that's all you can do
My mistake was I thought more of you

e-----------------------------------------------------------------------|
b---------8^7-------------8^7----5--5----8^7--8--12-------8^7--8--15----|
g--7--7---------5---5---------- -0----0--------------0------------------|
d--0----0-0-----0--0----0-0------0-------0----0---0----0--0----0---0----|
a-----------------------------------------------------------------------|
E-----------------------------------------------------------------------|


If you find yourself beside me looking for some faith
I can't say that our world is safe
When I'm on my way to another lonely place

e-------------10-------------------14--------------------------------------|
b--13----------7-----------13------15--------------------------------------|
g-----repeat---7--repeat-----------14--------------------------------------|
d--14----------7-----------14-------x--------------------------------------|
a--15----------------------15----------------------------------------------|
E--------------------------------------------------------------------------|


Lasting heartache is now in view
A cold dark shade that once was you

e-----------------------------------------------------------------------|
b---------8^7-------------8^7----5--5----8^7--8--12-------8^7--8--15----|
g--7--7---------5---5---------- -0----0--------------0------------------|
d--0----0-0-----0--0----0-0------0-------0----0---0----0--0----0---0----|
a-----------------------------------------------------------------------|
E-----------------------------------------------------------------------|


If you find yourself beside me looking for some faith
I can't say that our world is safe
When I'm on my way to another lonely place
I can't say that our world is safe
When I'm on my way I'm sad to leave this

e-------------10-------------------14--------------------------------------|
b--13----------7-----------13------15--------------------------------------|
g-----repeat---7--repeat-----------14--------------------------------------|
d--14----------7-----------14-------x--------------------------------------|
a--15----------------------15----------------------------------------------|
E--------------------------------------------------------------------------|


thats all i've got, i'll update it once i get the bridge
Tap to rate this tab
 
# A B C D E F G H I J K L M N O P Q R S T U V W X Y Z