Guitaretab - guitar tabs
Song name
# A B C D E F G H I J K L M N O P Q R S T U V W X Y Z

The Trews - Making Sunshine tab

#----------------------------------PLEASE NOTE----------------------------#
This file is the author's own work and represents their interpretation of the
song. You may only use this file for private study, scholarship, or research.
#----------------------------------------------------------------------#

                                 MAKIN' SUNSHINE
                            As recorded by The Trews
                      (From the 2006 Album DEN OF THIEVES)


Gtr I (E A D G B E) - 'John-Angus MacDonald'

  Q=115
 4/4
  Gtr I

 *Let all notes ring during the entire song

  E E E E E E S S E E E E E E E S S E E E E E E E S S E E E E E E E S S E
|-----7-----7-----7-----7-----7-----7-----7-----7-----7-----7-----7-----7-|
|---0-----0---9p0-----0-----0---9p0-----0-----0---9p0-----0-----0---9p0---|
|-------------------------------------------------------------------------|
|-9-----9-----------9-----9-----------9-----9-----------9-----9-----------|
|-------------------------------------------------------------------------|
|-------------------------------------------------------------------------|

[ Tab from: http://www.guitaretab.com/t/the-trews/73610.html ]
    E E E E E E S S E E E E E E E S S E E E E E E E S S E E E E E E E S S E E
|------7-----7-----7-----7-----7-----7-----7-----7-----7-----7-----7-----7--|
|o---0-----0---9p0-----0-----0---9p0-----0-----0---9p0-----0-----0---9p0----|
|---------------------------------------------------------------------------|
|--9-----9-----------9-----9-----------9-----9-----------9-----9-----------9|
|o--------------------------------------------------------------------------|
|---------------------------------------------------------------------------|


  E E E E E S S E E E E E E E S S E E E E E E E S S E E E E E E E S S E
|---7-----7-----7-----7-----7-----7-----7-----7-----7-----7-----7-----7----|
|-0-----0---9p0-----0-----0---9p0-----0-----0---9p0-----0-----0---9p0-----o|
|--------------------------------------------------------------------------|
|-----9-----------9-----9-----------9-----9-----------9-----9--------------|
|-------------------------------------------------------------------------o|
|--------------------------------------------------------------------------|
 										And so on...

Duration Legend
---------------
W - whole;
H - half;
Q - quarter;
E - 8th;
S - 16th;

Tablature Legend
----------------
 h   - hammer-on
 p   - pull-off
 b   - bend


Tabbed By: Ryan Levangie
Power Tab of this song is also available on this site.
*********************************************************************************
* Generated using Power Tab Editor by Brad Larsen - http://powertab.guitarnetwork.org *
*********************************************************************************
Related for Making Sunshine tab