Song name
# A B C D E F G H I J K L M N O P Q R S T U V W X Y Z

The Trews - Pearl More Than Anything tab

Opening (these are just the notes, you can figure out the timing and stuff by yourself)

]-7-5-3-----[
]-------3---[
]-----------[
]-----------[
]-----------[
]-----------[

Verse: (same, these are just the notes, you must repeat them)

]-7-5-3-----------[
]-------5-6-5-1-3-[
]-----------------[
]-----------------[
]-----------------[
]-----------------[

Prechorus:
(let ring)   (G)
]-------------3-[
]-------------0-[
]-------------0-[
]-5---5---2---0-[
]-3---2---0---2-[
]-------------3-[

Chorus: (chords that you repeat are indicated by *)
   *       *
]---------------------[
]---------------------[
]--5------------------[
]--5--2-5--7----------[
]--3--2-5--7----------[
]-----0-3--5--5(bend)-[

THE END
Tap to rate this tab
 
# A B C D E F G H I J K L M N O P Q R S T U V W X Y Z