Song name
# A B C D E F G H I J K L M N O P Q R S T U V W X Y Z

The Tutts - White Out tab

The Tutts
White Out
K Single


Wicked, synth-pop song with some kewl guitar work underneath. Matt I think is the
on this song and he uses a fender jag or mustang or just a strat with a hummer at the bridge.


Main riff- played in the opening parts before the vocalist comes in…
|  --------------------------------------------------------------- |
|  --------------------------------------------------------------- |
|  -x-x-7-x-x-7-x-x-5-x-x-5-x-x-9-x-x-9-x-x-7-x-x-7-----5-5------- |
|  -x-x-7-x-x-7-x-x-5-x-x-5-x-x-9-x-x-9-x-x-7-x-x-7-----5-5--7-5-- |
|  -x-x-5-x-x-5-x-x-3-x-x-3-x-x-7-x-x-7-x-x-5-x-x-5-----------7-5- |
|  --------------------------------------------------------------- |

…when he plays this a couple of times.
|  ----------------------------------- -- |
|  ----------------------------------- -- |
|  -------7-7-5---7-7-----5-------- ----- |
|  --5----7-7-5--7-7--5--5--7----- ------ |
|  --5------------------5------7----- --- |
|  ----------------------------------- -- |

Verse
|  --------------------------------------------------------------- |
|  --------------------------------------------------------------- |
|  -x-x-7-x-x-7-x-x-5-x-x-5-x-x-3-x-x-3-x-x-3-x-x-3-----5-5------- |
|  -x-x-7-x-x-7-x-x-5-x-x-5-x-x-3-x-x-3-x-x-3-x-x-3-----5-5--7-5-- |
|  -x-x-5-x-x-5-x-x-3-x-x-3-x-x-1-x-x-1-x-x-1-x-x-1-----------7-5- |
|  --------------------------------------------------------------- |

Until the chorus( not the bit where he goes “just listen it wont take long” the next
where there is no guitar that I can hear.

Enjoy man, tis a cool song and if you have any qualms or want to add to it then contact
on jamesdonaldson@hot-shot.com
Tap to rate this tab
# A B C D E F G H I J K L M N O P Q R S T U V W X Y Z