Guitaretab - guitar tabs
Song name
# A B C D E F G H I J K L M N O P Q R S T U V W X Y Z
Home / T / The Tutts / I20 tab

The Tutts - I20 tab

I20
The Tutts

This is a tab for the Tutts' song I20, which can be found on their Myspace. I couldn't
a tab for this so I tabbed it myself. I'm sure it's not 100% accurate and would greatly
any comments to improve it.

key: br - Bend & Release

Riff A
e|--------------------------------------------------------------------------|
B|-----------15------------------17---------15--15--15-------17-15----17-15-|
G|--14-16-14------16-14-16-14-16------14-16-----------16-14-------16--------|
D|--------------------------------------------------------------------------|
A|--------------------------------------------------------------------------|
E|--------------------------------------------------------------------------|

------|
17-17-|
------|x4
------|
------|
------|

e|--7--|
B|-----|
G|-----|
D|-----|
A|-----|
E|-----|
[ Tab from: http://www.guitaretab.com/t/the-tutts/90705.html ]
Riff B
e|--------------------------------------------------------------------------|
B|-----------15------------------17----------------------15-----------------|
G|--14-16-14------16-14-16-14-16------14-16------14-16-14------16-14-16-14--|
D|--------------------------------------------------------------------------|
A|--------------------------------------------------------------------------|
E|--------------------------------------------------------------------------|

-------------|
---17--------|
16-----14-16-|x4
-------------|
-------------|
-------------|


Riff A x4  Then:

e|--7--|
B|-----|
G|-----|
D|-----|
A|-----|
E|-----|

Riff B x2 Then:

e|-17br-|
B|------|
G|------|
D|------|
A|------|
E|------|

Riff B x2

Riff A x4

Riff C (with Riff A)x4
e|-----------------------------------------------------------|
B|-----------------------------------------------------------|
G|--7-7-7-9--7--9-9-7--9-9-7-7----7-7-7-9--7--9-9-7--9-9-7-7-|
D|-----------------------------------------------------------|
A|-----------------------------------------------------------|
E|-----------------------------------------------------------|


Riff D
e|-----------------------------------------------------------|
B|-----------------------------------------------------------|
G|-----------------------------------------------------------|
D|-----------------------------------------------------------|
A|-2-2-2-2-2-2-2-2-2-2-2-2-2-2-2-2-2-2-2-2-2-2-2-2-2-2-2-2-2-|
E|-----------------------------------------------------------|
(I don't know how many times you play this, at some point Riff C
comes in over this and plays twice)

Riff A x4
Related for I20 tab
Advertisement will be closed in 10 seconds