Song name
# A B C D E F G H I J K L M N O P Q R S T U V W X Y Z

The Twilight Sad - Cold Days From The Birdhouse tab

www.myspace.com/thetwilightsad


Band : The Twilight Sad
Song : Cold Days From The Birdhouse
Album: Fourteen Autumns & Fifteen Winters
Tabbed By: Calum (afirock74@hotmail.com)


x   - Palm Mute
b   - Bend
b~  - Bend Up Then Down
h   - Hammer-On Directly After Note Before
p   - Pull Off Note
~   - Ring Out


Intro Guitar 1:
e|---12-12-12-12-12-12-12-12----|
B|-10---10-10-10-10-10-10-10----|
G|------------------------------|
D|------------------------------|
A|------------------------------|
E|------------------------------|

Intro Guitar 2:
e|-------------------------------------------|
B|-0-0--0--0--0-0-0-0-0--0-0--0-0-0-0-0--0---|
G|-6/9--9b-6--6-6h7p6-2--2/4--4-4h6p4-2--1---|
D|-------------------------------------------|
A|-------------------------------------------|
E|-------------------------------------------|

Intro Guitar 3:
e|-0---0---0-------------------0-----------|
B|-2-----2-2--3p2--3-3---3-------0----0----|
G|-2-------2--2----2-2-4-2--1-------2--2---|
D|-2--2-2--2--2----0-0-0-0--2-------4------|
A|-0--0-0--0--0----------4--2-2-----4------|
E|--------------------------0-0-0----------|

Loud Part 1:
e|-00-0-0-00-0-0--00-0-0-00-0-0-00-0-0--44-4-4--00-0-0-00-0-0--|
B|-00-0-0-00-0-0--00-0-0-00-0-0-00-0-0--55-5-5--00-0-0-00-0-0--|
G|-11-1-1-11-1-1--22-2-2-22-2-2-22-2-2--66-6-6--11-1-1-11-1-1--|
D|-22-2-2-22-2-2--44-4-4-44-4-4-44-4-4--66-6-6--22-2-2-22-2-2--|
A|-22-2-2-22-2-2--44-4-4-44-4-4-44-4-4--44-4-4--22-2-2-22-2-2--|
E|-00-0-0-00-0-0--------------------------------00-0-0-00-0-0--|

Loud Part 2:
e|-00-0-0-------------------------00-0-0----------00-0-0-00-0-0--|
B|-00-0-0---22-2-2-22-2-2-22-2-2--00-0-0--55-5-5--00-0-0-00-0-0--|
G|-22-2-2---22-2-2-22-2-2-22-2-2--22-2-2--66-6-6--11-1-1-11-1-1--|
D|-44-4-4---22-2-2-22-2-2-22-2-2--44-4-4--66-6-6--22-2-2-22-2-2--|
A|-44-4-4---00-0-0-00-0-0-00-0-0--44-4-4--44-4-4--22-2-2-22-2-2--|
E|------------------------------------------------00-0-0-00-0-0--|

Part 2 Riff:
e|----------------16-16-16-16-16-16-16--|
B|-17-17-17-17-17-----------------------|
G|--------------------------------------|
D|--------------------------------------|
A|--------------------------------------|
E|--------------------------------------|

Outro:
e|-------------|
B|--0--0--0-0--|
G|-11b-9--6/9--|
D|-------------|
A|-------------|
E|-------------|
Tap to rate this tab
# A B C D E F G H I J K L M N O P Q R S T U V W X Y Z