Song name
# A B C D E F G H I J K L M N O P Q R S T U V W X Y Z

The Twilight Sad - Sick tab

Drop D tuning

This is based on the acoustic version (http://www.youtube.com/watch?v=py9vlDBJzIU)

I'm not 100% sure about the lyrics

E|--------------------------------------------------|
B|--------------------------------------------------|
G|-----3-----3---------2-----2---------0-----0------|
D|---0-----0-----0---0-----0-----0---1-----1-----1--|
A|--------------------------------------------------|
D|-5-----5-----5---3-----3-----3---1-----1-----1----|

E|--------------------------------------------------|
B|--------------------------------------------------|
G|-----0-----0---------0-----0---------0-----0------|
D|---1-----1-----1---1-----1-----1---1-----1-----1--|
A|--------------------------------------------------|
D|-1-----1-----1---1-----1-----1---1-----1-----1----| 


E|----------------------------------|
B|----------------------------------|
G|-----0-----0---------0-----0------|
D|---3-----3-----3---3-----3-----0--|
A|----------------------------------|
D|-0-----0-----0---0-----0------0---| 

   You donít feel the same
E|--------------------------------------------------|
B|-----3---------------3---------------3------------|
G|-----------0---------------0---------------0------|
D|---0-----0-----0---0-----0-----0---1-----1-----1--|
A|-----------------3-----3-----3--------------------|
D|-5-----5-----5-------------------1-----1-----1----|

   When the fears go
E|--------------------------------------------------|
B|-----3---------------3---------------3------------|
G|-----------0----------------0--------------0------|
D|---1-----1-----1---1-----1-----1---1-----1-----1--|
A|--------------------------------------------------|
D|-1-----1-----1---1-----1-----1---1-----1-----1----| 

   You'll buy my time
E|----------------------------------|
B|-----1---------------1------------|
G|-----------2---------------2------|
D|---3-----3-----3---3-----3-----0--|
A|----------------------------------|
D|-0-----0-----0---0-----0-----0----| 

   I'll never go with you tonight
E|--------------------------------------------------|
B|--------------------------------------------------|
G|-----3-----3---------2-----2---------0-----0------|
D|---0-----0-----0---0-----0-----0---1-----1-----1--|
A|--------------------------------------------------|
D|-5-----5-----5---3-----3-----3---1-----1-----1----|
  
   Until the party ends 
E|--------------------------------------------------|
B|--------------------------------------------------|
G|-----0-----0---------0-----0---------0-----0------|
D|---1-----1-----1---1-----1-----1---1-----1-----1--|
A|--------------------------------------------------|
D|-1-----1-----1---1-----1-----1---1-----1-----1----| 

   Until the part when we retire
E|----------------------------------|
B|----------------------------------|
G|-----0-----0---------0-----0------|
D|---3-----3-----3---3-----3-----0--|
A|----------------------------------|
D|-0-----0-----0---0-----0------0---| 

                                   Over the hill
E|--------------------------------------------------|
B|--------------------------------------------------|
G|-----3-----3---------2-----3---------0-----0------|
D|---0-----0-----0---0-----0-----0---1-----1-----1--|
A|--------------------------------------------------|
D|-5-----5-----5---3-----3-----3---1-----1-----1----|

    over the hill we go
E|--------------------------------------------------|
B|--------------------------------------------------|
G|-----0-----0---------0-----0---------0-----0------|
D|---1-----1-----1---1-----1-----1---1-----1-----1--|
A|--------------------------------------------------|
D|-1-----1-----1---1-----1-----1---1-----1-----1----| 

E|----------------------------------|
B|----------------------------------|
G|-----2-----0---------2-----0------|
D|---3-----3-----3---3-----3-----0--|
A|----------------------------------|
D|-0-----0-----0---0-----0------0---| 

And Iíll buy you the night, and Iíll buy you the time
E|--------------------------------------------------|
B|--------------------------------------------------|
G|-----3-----3---------2-----3---------0-----0------|
D|---0-----0-----0---0-----0-----0---1-----1-----1--|
A|--------------------------------------------------|
D|-5-----5-----5---3-----3-----3---1-----1-----1----|

   And we can do anything you want
E|--------------------------------------------------|
B|--------------------------------------------------|
G|-----0-----0---------0-----0---------0-----0------|
D|---1-----1-----1---1-----1-----1---1-----1-----1--|
A|--------------------------------------------------|
D|-1-----1-----1---1-----1-----1---1-----1-----1----|
 
E|----------------------------------|
B|----------------------------------|
G|-----2-----0---------0-----0------|
D|---3-----3-----3---3-----3-----0--|
A|----------------------------------|
D|-0-----0-----0---0-----0------0---| 

   Will you go there
E|--------------------------------------------------|
B|-----3---------------3---------------3------------|
G|-----------0---------------0---------------0------|
D|---0-----0-----0---0-----0-----0---1-----1-----1--|
A|-----------------3-----3-----3--------------------|
D|-5-----5-----5-------------------1-----1-----1----|

  my never, my never
E|--------------------------------------------------|
B|-----3---------------3---------------3------------|
G|-----------0----------------0--------------0------|
D|---1-----1-----1---1-----1-----1---1-----1-----1--|
A|--------------------------------------------------|
D|-1-----1-----1---1-----1-----1---1-----1-----1----| 

   You'll buy my time
E|----------------------------------|
B|-----1---------------1------------|
G|-----------2---------------2------|
D|---3-----3-----3---3-----3-----0--|
A|----------------------------------|
D|-0-----0-----0---0-----0-----0----| 

   I'll never go with you tonight
E|--------------------------------------------------|
B|--------------------------------------------------|
G|-----3-----3---------2-----3---------0-----0------|
D|---0-----0-----0---0-----0-----0---1-----1-----1--|
A|--------------------------------------------------|
D|-5-----5-----5---3-----3-----3---1-----1-----1----|

                 Until the party ends 
E|--------------------------------------------------|
B|--------------------------------------------------|
G|-----0-----0---------0-----0---------0-----0------|
D|---1-----1-----1---1-----1-----1---1-----1-----1--|
A|--------------------------------------------------|
D|-1-----1-----1---1-----1-----1---1-----1-----1----| 

  until the part when we retire
E|----------------------------------|
B|----------------------------------|
G|-----2-----0---------2-----0------|
D|---3-----3-----3---3-----3-----0--|
A|----------------------------------|
D|-0-----0-----0---0-----0-----0----|

E|--------------------------------------------------|
B|--------------------------------------------------|
G|-----3-----3---------2-----3---------0-----0------|
D|---0-----0-----0---0-----0-----0---1-----1-----1--|
A|--------------------------------------------------|
D|-5-----5-----5---3-----3-----3---1-----1-----1----|

   over the hill, over the hill we go
E|--------------------------------------------------|
B|--------------------------------------------------|
G|-----0-----0---------0-----0---------0-----0------|
D|---1-----1-----1---1-----1-----1---1-----1-----1--|
A|--------------------------------------------------|
D|-1-----1-----1---1-----1-----1---1-----1-----1----| 

E|----------------------------------|
B|----------------------------------|
G|-----0-----0---------0-----0------|
D|---3-----3-----3---3-----3-----0--|
A|----------------------------------|
D|-0-----0-----0---0-----0-----0----| 

  You, you tell me slower
E|--------------------------------------------------|
B|--------------------------------------------------|
G|-----3-----3---------2-----2---------0-----0------|
D|---0-----0-----0---0-----0-----0---1-----1-----1--|
A|--------------------------------------------------|
D|-5-----5-----5---3-----3-----3---1-----1-----1----|

   What have you seen
E|--------------------------------------------------|
B|--------------------------------------------------|
G|-----0-----0---------0-----0---------0-----0------|
D|---1-----1-----1---1-----1-----1---1-----1-----1--|
A|--------------------------------------------------|
D|-1-----1-----1---1-----1-----1---1-----1-----1----|

  And what did you see 
E|----------------------------------|
B|----------------------------------|
G|-----0-----0---------0-----0------|
D|---3-----3-----3---3-----3-----0--|
A|----------------------------------|
D|-0-----0-----0---0-----0-----0----| 

  And three girls saw her
E|--------------------------------------------------|
B|-----3---------------3---------------3------------|
G|-----------0---------------0---------------0------|
D|---0-----0-----0---0-----0-----0---1-----1-----1--|
A|-----------------3-----3-----3--------------------|
D|-5-----5-----5-------------------1-----1-----1----|

   Looking so thin
E|--------------------------------------------------|
B|-----3---------------3---------------3------------|
G|-----------0----------------0--------------0------|
D|---1-----1-----1---1-----1-----1---1-----1-----1--|
A|--------------------------------------------------|
D|-1-----1-----1---1-----1-----1---1-----1-----1----| 

   Black and bruised skin
E|----------------------------------|
B|-----1---------------1------------|
G|-----------2---------------2------|
D|---3-----3-----3---3-----3-----0--|
A|----------------------------------|
D|-0-----0-----0---0-----0-----0----| 

  I'll never go with you tonight
E|--------------------------------------------------|
B|--------------------------------------------------|
G|-----3-----3---------2-----3---------0-----0------|
D|---0-----0-----0---0-----0-----0---1-----1-----1--|
A|--------------------------------------------------|
D|-5-----5-----5---3-----3-----3---1-----1-----1----|

   Until the party ends 
E|--------------------------------------------------|
B|--------------------------------------------------|
G|-----0-----0---------0-----0---------0-----0------|
D|---1-----1-----1---1-----1-----1---1-----1-----1--|
A|--------------------------------------------------|
D|-1-----1-----1---1-----1-----1---1-----1-----1----| 

  until the part when we retire
E|----------------------------------|
B|----------------------------------|
G|-----2-----0---------2-----0------|
D|---3-----3-----3---3-----3-----0--|
A|----------------------------------|
D|-0-----0-----0---0-----0-----0----|
                                 
E|--------------------------------------------------|
B|--------------------------------------------------|
G|-----3-----3---------2-----3---------0-----0------|
D|---0-----0-----0---0-----0-----0---1-----1-----1--|
A|--------------------------------------------------|
D|-5-----5-----5---3-----3-----3---1-----1-----1----|


E|--------------------------------------------------|
B|--------------------------------------------------|
G|-----0-----0---------0-----0---------0-----0------|
D|---1-----1-----1---1-----1-----1---1-----1-----1--|
A|--------------------------------------------------|
D|-1-----1-----1---1-----1-----1---1-----1-----1----| 

E|----------------------------------|
B|----------------------------------|
G|-----0-----0---------0-----0------|
D|---3-----3-----3---3-----3-----0--|
A|----------------------------------|
D|-0-----0-----0---0-----0-----0----| 

   You look so frail, you know 
E|--------------------------------------------------|
B|-----6-----6-------------------------4-----4------|
G|---------------------7-----7-------0-----0------0-|
D|---5-----5-----5---5-----5-----5------------------|
A|-6-----6-----6---6-----6-----6---3-----3------3---|
D|--------------------------------------------------| 

            But still you owe           
E|--------------------------------------------------|
B|-----3-----3--------------------------------------|
G|---0-----0-----0-----3-----3----------3----3------|
D|-------------------0-----0-----0---0-----0-----0--|
A|-3-----3-----3------------------------------------|
D|-----------------5-----5-----5---5-----5-----5----|

  tears false hope
E|----------------------------------|
B|----------------------------------|
G|-----7-----7---------7-----7------|
D|---0-----0-----0---0-----0-----0--|
A|----------------------------------|
D|-8-----8-----8---8-----8-----8----|

   You look so frail, you know 
E|--------------------------------------------------|
B|-----6-----6-------------------------4-----4------|
G|---------------------7-----7-------0-----0------0-|
D|---5-----5-----5---5-----5-----5------------------|
A|-6-----6-----6---6-----6-----6---3-----3------3---|
D|--------------------------------------------------| 

            But still you hope...           
E|--------------------------------------------------|
B|-----3-----3--------------------------------------|
G|---0-----0-----------3-----3----------3----3------|
D|---------------0---0-----0-----0---0-----0-----0--|
A|-3-----3-----3------------------------------------|
D|-----------------5-----5-----5---5-----5-----5----|

  
E|----------------------------------|
B|----------------------------------|
G|-----7-----7---------7-----7------|
D|---0-----0-----0---0-----0-----0--|
A|----------------------------------|
D|-8-----8-----8---8-----8-----8----|

E|----------------------------------------------|
B|---3---------3---3--------------3-------------|
G|---------0-------------0---0----------0---0---|
D|-1-----1---1------------------1-----1---1-----|
A|---------------3-----3---3--------------------|
D|----------------------------------------------|

E|----------------------------------------------|
B|---3--------------3-------------1-------------|
G|---------0---0----------0---0----------2---0--|
D|----------------1-----1---1---0------0---0----|
A|-3-----3---3----------------------------------|
D|----------------------------------------------|

E|--------------------------------------------------|
B|--------------------------------------------------|
G|-----3-----3---------2-----2---------0-----0------|
D|---0-----0-----0---0-----0-----0---1-----1-----1--|
A|--------------------------------------------------|
D|-5-----5-----5---3-----3-----3---1-----1-----1----|

   Until the party ends 
E|--------------------------------------------------|
B|--------------------------------------------------|
G|-----0-----0---------0-----0---------0-----0------|
D|---1-----1-----1---1-----1-----1---1-----1-----1--|
A|--------------------------------------------------|
D|-1-----1-----1---1-----1-----1---1-----1-----1----| 

  until the part when we retire
E|----------------------------------|
B|-----1---------------1------------|
G|-----------2---------------2------|
D|---3-----3-----3---3-----3-----0--|
A|----------------------------------|
D|-0-----0-----0---0-----0-----0----|

E|--------------------------------------------------|
B|--------------------------------------------------|
G|-----3-----3---------2-----3---------0-----0------|
D|---0-----0-----0---0-----0-----0---1-----1-----1--|
A|--------------------------------------------------|
D|-5-----5-----5---3-----3-----3---1-----1-----1----|

   Until the party ends 
E|--------------------------------------------------|
B|--------------------------------------------------|
G|-----0-----0---------0-----0---------0-----0------|
D|---1-----1-----1---1-----1-----1---1-----1-----1--|
A|--------------------------------------------------|
D|-1-----1-----1---1-----1-----1---1-----1-----1----| 

  until the part when we retire
E|----------------------------------|
B|-----1---------------1------------|
G|-----------2---------------2------|
D|---3-----3-----3---3-----3-----0--|
A|----------------------------------|
D|-0-----0-----0---0-----0-----0----|

E|--------------------------------------------------|
B|--------------------------------------------------|
G|-----3-----3---------2-----3---------0-----0------|
D|---0-----0-----0---0-----0-----0---1-----1-----1--|
A|--------------------------------------------------|
D|-5-----5-----5---3-----3-----3---1-----1-----1----|

   Until the party ends 
E|--------------------------------------------------|
B|--------------------------------------------------|
G|-----0-----0---------0-----0---------0-----0------|
D|---1-----1-----1---1-----1-----1---1-----1-----1--|
A|--------------------------------------------------|
D|-1-----1-----1---1-----1-----1---1-----1-----1----| 

  until the part when we retire
E|-------------------------------------|
B|-----1---------------1---------------|
G|-----------2---------------2---------|
D|---3-----3-----3---3-----3------0----|
A|-------------------------------------|
D|-0-----0-----0---0-----0------0---0--|
Tap to rate this tab
# A B C D E F G H I J K L M N O P Q R S T U V W X Y Z