Guitaretab - guitar tabs
Song name
# A B C D E F G H I J K L M N O P Q R S T U V W X Y Z

The Twilight Singers - Powder Burns tab

THE TWILIGHT SINGERS

POWDER BURNS

tabbed by dan (yellowledbetter_69@hotmail.co.uk)

standard tuning

|----------------------------------|
|----------------------------------|
|--------6-------6--------6--------|
|------6-------6--------6----------|
|----4-----------------------------|
|-----------5--------4--------5----|
intro/verse

|--------------------------------------------------------|--------------|
|--------------------------------------------------------|--------------|
|-----------------4--4--4--4---6--6--6--6---2--2--2--2---|----------2---|
|----2--2--2--2---4--4--4--4---6--6--6--6---2--2--2--2---|---2------2---|
|----2--2--2--2---2--2--2--2---4--4--4--4---0--0--0--0---|---2------0---|
|----0--0--0--0------------------------------------------|---0----------|
chorus                                                first bridge
[ Tab from: http://www.guitaretab.com/t/the-twilight-singers/176477.html ]
  (notes in brackets are sustained chord from chorus)
|------------------------------------------------|
|------------------------------------------------|
|--------------2------------4-----------2---------|
|----(2)-------2------------4-----------2---------|
|----(2)-------0------------2-----------0---------|
|----(0)------------------------------------------|
second bridge (bit before solo)

|------------------------------------------------------------------------|
|------------------------------------------------------/9-12--12-12/14---|
|--/9--9h11--9h11-9--------------/9--9h11--9h11--9-----------------------|
|-------------------11-/11-9-7----------------------11-------------------|
|------------------------------------------------------------------------|
|------------------------------------------------------------------------|
solo    with wah      other guitar plays verse

|------------------------------------------------------------------------|
|-------------------------------9---9-12-12-9-------------------9/12/14--|
|-------------------4h6----9h11---------------11-9-9h11-9----/9----------|
|-------2/4/6---4h6---------------------------------------11-------------|
|----/4------------------------------------------------------------------|
|------------------------------------------------------------------------|
solo  continued      let last note feedback

after solo, it's just repeating verse and chorus
that's it. any comments. suggestions etc email me.

Related for Powder Burns tab
×
Best way to learn
"Powder Burns"