Song name
# A B C D E F G H I J K L M N O P Q R S T U V W X Y Z

The Twilight Singers - King Only tab

Intro
e|---------------------------------------|
B|-8----8---8---8----------8---8---8---8-|
G|----5---5---5---5------5---5---5---5---|
D|-5-----------------4h5-----------------|
A|---------------------------------------|
E|---------------------------------------|


Verse 1 (both parts x2)
Guitar 1
e|--------------------------------------------------------------------------|
B|-8--8---8-8---8--------5-5---5-5---5-----5---5--5---5------5---5---5---5--|
G|------5-----5----4h5---5---5-----5-----5---5------5------5---5-------5----|
D|-5---------------------5--------------------------------------------------|
A|--------------------------------------------------------------------------|
E|--------------------------------------------------------------------------|

Guitar 2
e|-------------------------------------------------|
B|-8~-------------5~--------------------------5~---|
G|-5~-------------5~------------5~------------5~---|
D|------------------------------5~-----------------|
A|-------------------------------------------------|
E|-------------------------------------------------|


Chorus 1
e|--------------------------------------------------------------------------------------|
B|--------------------------------------------------------------------------------------|
G|--------------------------------------------------------------------------------------|
D|-7777-5555-3333-3333-\-7777-5555-3333-333/5---7777-5555-3333-3333---7777-5555-3333-3~-|
A|-7777-5555-3333-3333-\-7777-5555-3333-333/5---7777-5555-3333-3333---7777-5555-3333-3~-|
E|-5555-3333-1111-1111-\-5555-3333-1111-111/3---5555-3333-1111-1111---5555-3333-1111-1~-|

Then this x3
e|-------|
B|----6--|
G|-5--5--|
D|-5--3--|
A|-3-----|
E|-------|

Verse 2
Guitar 1
e|----------------------------------------------------------------------|
B|-8--8---8-8---8----5-5---5-5---5-----5---5--5---5------5---5---8--5---|
G|------5-----5------5---5-----5-----5---5------5------5---5----------5-|
D|-5-----------------5--------------------------------------------------|
A|----------------------------------------------------------------------|
E|----------------------------------------------------------------------|

e|--------------------------------------------------------------------|
B|-8--8---8-8---8----5-5---5-5---5-----8---8--8---8------5---5--5---5-|
G|------5-----5------5---5-----5-----5---5------5------5---5------5---|
D|-5-----------------5------------------------------------------------|
A|--------------------------------------------------------------------|
E|--------------------------------------------------------------------|


Guitar 2 (x2)
e|--------------------------------------------------------|
B|-8~---------------5~-------------------------------5~---|
G|-5~---------------5~-------------5~----------------5~---|
D|---------------------------------5~---------------------|
A|--------------------------------------------------------|
E|--------------------------------------------------------|

Chorus 2
e|----------------------------------------------------------------------------------------|
B|----------------------------------------------------------------------------------------|
G|----------------------------------------------------------------------------------------|
D|-7777-5555-3333-3333-\-7777-5555-3333-333/5---7777-5555-3333-3333---7777-5555-3333-3333-|
A|-7777-5555-3333-3333-\-7777-5555-3333-333/5---7777-5555-3333-3333---7777-5555-3333-3333-|
E|-5555-3333-1111-1111-\-5555-3333-1111-111/3---5555-3333-1111-1111---5555-3333-1111-1111-|

e|-------------------------------------------------------------------------------------|
B|-------------------------------------------------------------------------------------|
G|-------------------------------------------------------------------------------------|
D|-7777-5555-3333-3333-\-7777-5555-3333-333/5---7777-5555-3333-3333---7777-5555-3333-3-|
A|-7777-5555-3333-3333-\-7777-5555-3333-333/5---7777-5555-3333-3333---7777-5555-3333-3-|
E|-5555-3333-1111-1111-\-5555-3333-1111-111/3---5555-3333-1111-1111---5555-3333-1111-1-|


Guitar plays this at 1.57 - 2.00
e|-------3---------|
B|-5-3-5---6-5-3-5-|
G|-----------------|
D|-----------------|
A|-----------------|
E|-----------------|

Then this x2
e|-------|
B|----6--|
G|-5--5--|
D|-5--3--|
A|-3-----|
E|-------|


Outro
e|----------------|
B|----------------|
G|----------------|
D|----------------|
A|----------------|
E|-5~---3~---1~---|

Guitar 2
e|----------------------|
B|---5-------5-----8~---|
G|-----5-------5---5~---|
D|-5-------5-------5~---|
A|----------------------|
E|----------------------|
Tap to rate this tab
 
# A B C D E F G H I J K L M N O P Q R S T U V W X Y Z