Song name
# A B C D E F G H I J K L M N O P Q R S T U V W X Y Z

The Twilight Singers - The Twilite Kid tab

Guitar 1 plays this throughout
e|---------------|
B|---------------|
G|-9-9-(999)-9---|
D|-9-9-(999)-9---|
A|---------------|
E|---------------|


Intro
Guitar 2
e|-----------------------------------------------|
B|-----------------------------------------------|
G|-----------------------------------------------|
D|-----------------------------------------------|
A|-7~---4~---0~---4~---7~---4~--2-0~---2~---4~---|
E|-----------------------------------------------|


Verse
Guitar 2
e|---------------------------------------------------------------------------------|
B|---------------------------------------------------------------------------------|
G|-9-------6-------2------4------6---------9-------6-------2------4------9------9~-|
D|-9-(x16)-6-(x16)-2-(x8)-4-(x8)-6-(x16)---9-(x16)-6-(x16)-2-(x8)-4-(x8)-9-(x8)-9~-|
A|-7-------4-------0------2------4---------7-------4-------0------2------7------7~-|
E|---------------------------------------------------------------------------------|

If my love...
e|-----------------------------------------------------|
B|-----------------------------------------------------|
G|-6------4------2------4--------6------4------2-------|
D|-6-(x8)-4-(x8)-2-(x8)-4-(x8)---6-(x8)-4-(x8)-2-(x16)-|
A|-4------2------0------2--------4------2------0-------|
E|-----------------------------------------------------|


As I die...
e|---------------------------------------|
B|---------------------------------------|
G|-6~---4~---2~---4~---6~---4~---2~------|
D|-6~---4~---2~---4~---6~---4----2~------|
A|-4~---2~---0~---2~---4~---2~---0~------|
E|---------------------------------------|

e|-----------------------------------------|
B|-----------------------------------------|
G|-9-------6-------2------4------6---------|
D|-9-(x16)-6-(x16)-2-(x8)-4-(x8)-6-(x16)---|
A|-7-------4-------0------2------4---------|
E|-----------------------------------------|

Guitar 2 plays this until the end
e|--------------------------------------------------|
B|--------------------------------------------------|
G|-2------4------6------4------2------4------6------|
D|-2-(x8)-4-(x8)-6-(x8)-4-(x8)-2-(x8)-4-(x8)-6(x16)-|
A|-0------2------4------2------0------2------4------|
E|--------------------------------------------------|

Guitar 3 solo 3.26
e|-14--12-------------------------------------------------------------|
B|---------12h14-14-14-----------------------------------------12/14b-|
G|----------------------11-13--11-9--9h11/13--11-13--13\11/13---------|
D|--------------------------------------------------------------------|
A|--------------------------------------------------------------------|
E|--------------------------------------------------------------------|


3.39
e|-14-12----------------------------------------------------------------------------------|
B|-------14-12h14-141414141414141414---12h14-1414141414141414-----------------------------|
G|--------------------------------------------------------------13\11/13-1313131313131313-|
D|----------------------------------------------------------------------------------------|
A|----------------------------------------------------------------------------------------|
E|----------------------------------------------------------------------------------------|

3.56
e|-----------------------------------------------------------------------------------------|
B|---7---9----------9-7-------9-------------------9-7-------9----------9-7-----------------|
G|-9---9----9--9h11------9h11---9---9h11p9---9h11------9h11---9---9h11------11-9-11---11-9-|
D|-----------------------------------------------------------------------------------------|
A|-----------------------------------------------------------------------------------------|
E|-----------------------------------------------------------------------------------------|

4.16
e|---------------------------------------------------------------------------------------|
B|------9-7-------9----------------------------------------------------------------------|
G|-9h11------9h11---9--9h11p9---------9h11-11-11-9---------------------------------------|
D|-------------------------------9h11--------------11---11-9-11---9-11-11----------------|
A|--------------------------------------------------------------------------9--7/9/11-11-|
E|---------------------------------------------------------------------------------------|

e|-------------|
B|-------------|
G|-------------|
D|-9-----------|
A|----11--9--7-|
E|-------------|
Tap to rate this tab
# A B C D E F G H I J K L M N O P Q R S T U V W X Y Z