Song name
# A B C D E F G H I J K L M N O P Q R S T U V W X Y Z

The Twilight Singers - Thats Just How That Bird Sings tab

-----------------------------------------------------------
-----------------------------------------------------------

Intro/Verse

e|--3-------3-----2--3--0----0---------0-|
B|--0----0----0---0-----0-------0----3---|
G|--0--0--------0----------0------0--0---|
D|--2-------------0----------------------|
A|----------------------3------------2---|
E|---------------------------------------|

e|------0---------0-------0--------0-----|
B|-0-------0----3----1------1----0-------|
G|-0--0------0--0----0--0-----0--0-------|
D|-2------------0----------------0-------|
A|-------------------3-------------------|
E|---------------------------------------|

Chorus

		      x4				     x2
e|--0----0-------0----||--0----0-------0----0----0-------0---||
B|--1-------1----0----||--3-------3----0----1-------1----0---||
G|-----0------0----0--||-----0------0----0-----0------0------||
D|--------------------||-------------------------------------||
A|--3------------2----||--0------------2----3------------2---||
E|--------------------||-------------------------------------||


Bridge

e|--0-----0----------------------|
B|--1--3--3-//-5-------7-\\------|
G|--0--0--0----------------------|
D|-------------------------------|
A|--3--5--5-//-7-----------------|
E|-------------------------------|

Lyrics:

[Hum]

--- Verse ---

see the morning light
it breaks the sky to the East
hear the birds above
announcing the light like rays of love

hear the one who sings
as darkness clouds the Western sky
the one who sounds as though
he's weeping for his long lost lover

--- Chorus ---

he's alone and sad
he betrays the bluest sounds
coming down
over the rooftops, into your dreams
that's just how that bird sings



--- Verse ---

all the way until
the heat of the nighttime still
at that hour
all of the dreams devour the senses

mothers keep your child
far from home, they will roam
run to trouble first it iz what they thirst for
to quench their sorrow


--- Chorus ---

he's alone and sad
he betrays the bluest sounds
coming down
over the rooftops, into your dreams
he will sing despite the approaching night
as though you know just what he means
I suppose
that's just how that bird sings . . . 


-----------------------------------------------------------
-----------------------------------------------------------

You can contact me in kniren@gmail.com, I'd love to speak of music and stuff!

Dedicated to one of my dearest friends, I hope we can play together soon!

-----------------------------------------------------------
-----------------------------------------------------------
Tap to rate this tab
# A B C D E F G H I J K L M N O P Q R S T U V W X Y Z