Song name
# A B C D E F G H I J K L M N O P Q R S T U V W X Y Z

The Twilight Singers - Bonnie Brae tab

Help us improve GuitareTab! Take a short survey!
-----------------------------------------------------------------------------
			     Bonnie Brae - The Twilight Singers
-----------------------------------------------------------------------------
Tabbed by: Christopher Mckeown
Email: christoph_mckeown@hotmail.com

Tuning: standard

intro/verse/chorus
e|--------------------------------------------------------------------------|
B|--------------------------------------------------------------------------|
G|--------------------------------------------------------------------------|
D|---0-0-0-0-0-0-0----0-0-0-0-0-0-0----0-0-0-0-0-0-0---0-0-0-0-0-0-0--------|
A|--------------------------------------------------------------------------|
E|-3----------------2----------------0---------------2----------------------|

Bridge
4X
e|--------------------------------------------------------------------------|
B|--------------------------------------------------------------------------|
G|--6/7-7-7---6/7-7-7---6/7--7---9---9--------------------------------------|
D|--------------------------------------------------------------------------|
A|--4/5-5-5---4/5-5-5---4/5--5---7---7--------------------------------------|
E|--------------------------------------------------------------------------|

1X
e|--------------------------------------------------------------------------|
B|--7/8-8-8---7/8-8-8---7/8--8---10--10---10/12-12-12/14-14--14/15-15-------|
G|--------------------------------------------------------------------------|
D|--4/5-5-5---4/5-5-5---4/5--5---7---7-----7/9---9--9/11-11--11/12-12-------|
A|--------------------------------------------------------------------------|
E|--------------------------------------------------------------------------|

Keep strumming this for the rest of the bridge
e|-------|
B|---15--|
G|-------|
D|---12--|
A|-------|
E|-------|

Back to this
e|--------------------------------------------------------------------------|
B|--------------------------------------------------------------------------|
G|--------------------------------------------------------------------------|
D|---0-0-0-0-0-0-0----0-0-0-0-0-0-0----0-0-0-0-0-0-0---0-0-0-0-0-0-0--------|
A|--------------------------------------------------------------------------|
E|-3----------------2----------------0---------------2----------------------|

with a keyboard playing this:
e|-3-2---2------------------------------|
B|----------2-3---3----3----3---3---3---|


and at the very end play this
D|----0-|
A|-2----|
E|-3----|
Related for Bonnie Brae tab