Song name
# A B C D E F G H I J K L M N O P Q R S T U V W X Y Z

The Twilight Singers - Papillion tab

-------------------------------------------------------------------------------
			  Papillion - The Twilight Singers
-------------------------------------------------------------------------------
Tabbed by: cokboydeluxejr
Email: we'll call you

Tuning:standard

e|---0-0---0-0----0-0----0-0----|
B|---0-0---0-0----0-0----0-0----|
G|---0-0---0-0----0-0----0-0----|
D|---0-0---0-0----0-0----0-0----|
A|-7-----5------3------2--------|
E|------------------------------|

e|---0-0---0-0---0-0-----0------|
B|---0-0---0-0---0-0-----0------|
G|---0-0---0-0---0-0-----0------|
D|---0-0---0-0---0-0-----0------|
A|-7-----5-----3-----3/5--------|
E|------------------------------|

e|---0-0---0-0----0-0----0-0----|
B|---0-0---0-0----0-0----0-0----|
G|---0-0---0-0----0-0----0-0----|
D|---0-0---0-0----0-0----0-0----|
A|-7-----5------3------2--------|
E|------------------------------|

e|---0-0---0-0----0-0------0----|
B|---0-0---0-0----0-0------0----|
G|---0-0---0-0----0-0------0----|
D|---0-0---0-0----0-0------0----|
A|------------------------------|
E|-0-----3------5------5/7------|
Tap to rate this tab
 
# A B C D E F G H I J K L M N O P Q R S T U V W X Y Z