Song name
# A B C D E F G H I J K L M N O P Q R S T U V W X Y Z

The Ultra Cheesy Flubbed Up Nuclear Cheesballs - Rasta Man tab

-------------------------------------------------------------------------------
Tabbed by:Will-Low
Email:

Tuning:Standard

e|---------------------------|
B|--------1-1-----3-3----1-1-|
G|-0-0----2-2-----4-4----2-2-| VERSE/ROTS (rest of the song)
D|-2-2----3-3-----5-5----3-3-|
A|-3-3-----------------------|
E|---------------------------|

SOLO
e|---3---3---------8-----8-------10-----10--|
B|--5---5--------10----10------12-----12----|
G|-5---5-------10----10------12-----12------|
D|------------------------------------------| x2
A|------------------------------------------|
E|------------------------------------------|

e|-12-12-10-8-7-8-10-8-7-8-7-5-3-5-7-8-10-8-7-8-7-5-7-5-3-5-3-1-0-1-3---|
B|--------------------------------------------------------------------1-|
G|----------------------------------------------------------------------|
D|----------------------------------------------------------------------|
A|----------------------------------------------------------------------|
E|----------------------------------------------------------------------|

That is it just keep repeating the main part and your good.
Tap to rate this tab
# A B C D E F G H I J K L M N O P Q R S T U V W X Y Z