Song name
# A B C D E F G H I J K L M N O P Q R S T U V W X Y Z

The Ultra Cheesy Flubbed Up Nuclear Cheesballs - Ground Beef Im A Vegetarian tab

Help us improve GuitareTab! Take a short survey!
-------------------------------------------------------------------------------
Tabbed by:Will-Low

Tuning:Drop D (Top 1 step down)

e|-------------------------------------------------------------------|   
B|-------------------------------------------------------------------|
G|-------------------------------------------------------------------|x2
D|-0-0---7-7-7---3-3-3---7-7-7-7---0-0---7-7-7---3-3-3---10-10-10-12-|
A|-0-0---7-7-7---3-3-3---7-7-7-7---0-0---7-7-7---3-3-3---10-10-10-12-|
D|-0-0---7-7-7---3-3-3---7-7-7-7---0-0---7-7-7---3-3-3---10-10-10-12-|

End the next time with this
e|--|
B|--|
G|--|
D|0s|
A|0s|
D|0s|

e|-----5-5-5-1-1-1-5-5-5-5-----5-5-5-1-1-1-8-8-10-|
B|-3-3---------------------3-3--------------------|
G|------------------------------------------------|x2
D|------------------------------------------------|
A|------------------------------------------------|
D|------------------------------------------------|

End with
e|-10sb-|
B|-10sb-|
G|-7sb--|
D|------|
A|------|
D|------|

S=sustain 
B=bend
Related for Ground Beef Im A Vegetarian tab