Song name
# A B C D E F G H I J K L M N O P Q R S T U V W X Y Z

The Ultra Cheesy Flubbed Up Nuclear Cheesballs - Killing Cabbage tab

*=palm mute

e------------|
b------------|
g------------| Intro Guitar 1
d------------|
a------1-4-1-|
d-1-4-1-1-1--|

e----------------------------------|
b----------------------------------|
g----6-------6-------6-------6-----| Intro Guitar 2
d--8---8-8-8---8-8-8---8-8-8---8---|
a-6-6-6-6-6-6-6-6-6-6-6-6-6-6-6-69-|
d----------------------------------|

e---------|
b---------|
g---------|
d-5-5-5-5-|
a-5-5-5-5-|
d-5-5-5-5-|
  * *   *
Tap to rate this tab
# A B C D E F G H I J K L M N O P Q R S T U V W X Y Z