Song name
# A B C D E F G H I J K L M N O P Q R S T U V W X Y Z

The Unband - Geez Louise tab

Artist: The Unband
Song: Geez Louise
Tabber: KP


~ = Let it ring
U = Strum up
D = Strum Down

To start, this song is in drop D tunning (DADGBE)
You should use an Down Up Down Up strumming pattern and every individual
    chord needs to be strummed to get the right sound.
For the sake of being able to read the tab I am going to space it out though.


   D   U D U D U D U D U D  U
e|------------------------------||
B|------------------------------||
G|------------------------------||
D|-2~--5-5-6-6-7-7-8-8-9-9--0~--||  Repeat this like 11 times or so
A|-2~--5-5-6-6-7-7-8-8-9-9--0~--||
D|-2~--5-5-6-6-7-7-8-8-9-9--0~--||

   
   D    D    D    D     D  U  D  U  D
e|------------------------------------|
B|------------------------------------|
G|------------------------------------|
D|-2~~--0~~--7~~--9~~--12-12-11-12-12-|
A|-2~~--0~~--7~~--9~~--12-12-11-12-12-|
D|-2~~--0~~--7~~--9~~--12-12-11-12-12-|


   D   U D U D U D U D U D  U
e|------------------------------|
B|------------------------------|
G|------------------------------|
D|-2~--5-5-6-6-7-7-8-8-9-9--0~--|  
A|-2~--5-5-6-6-7-7-8-8-9-9--0~--|
D|-2~--5-5-6-6-7-7-8-8-9-9--0~--|


This is every thing except the solo, you just repeat those two phrases 
and that it. Just play along with the song to get timing and everything.
Tap to rate this tab
# A B C D E F G H I J K L M N O P Q R S T U V W X Y Z