Song name
# A B C D E F G H I J K L M N O P Q R S T U V W X Y Z

The Unband - Pink Slip tab

                                 Pink Slip                                     


                                                                      The Unband
guitar1
standard tuning



     tab by: lee551 // december 23-25, 2003                           
     W                                         Q    E  E  Q    E  E   
E||-----------------------------------------|------------------------|
B||-----------------------------------------|------------------------|
G||-----------------------------------------|----------3--4----------|
D||-----------------------------------------|--2-------3--4-------6--|
A||-----------------------------------------|--2-------1--2-------6--|
E||-----------------------------------------|--0------------------4--|


                   * this is just some random notes with a slide        
  Q    E  E  Q     S                                            S  E    
-----------------------------------------------------------------------|
-----------------------------------------------------------------------|
----------6--6---------------------------------------------------------|
--6-------6--6---------------------------------------------------------|
--6-------4--4----11--------------------------------------------0-11S--|
--4----------------9--------------------------------------------0--9S--|


  Q    E  E  Q    E  E     Q    E  E  Q.      E      Q    E  E  Q    E  E   
------------------------|-------------------------|------------------------|
------------------------|-------------------------|------------------------|
----------3--4----------|----------6--6-----------|----------3--4----------|
--2-------3--4-------6--|--6-------6--6------11S--|--2-------3--4-------6--|
--2-------1--2-------6--|--6-------4--4------11S--|--2-------1--2-------6--|
--0------------------4--|--4------------------9S--|--0------------------4--|


  Q    E  E  Q     S S  E      Q    E  E  Q    E  E     Q    E  E  Q.      E    
----------------------------|------------------------|-------------------------|
----------------------------|------------------------|-------------------------|
----------6--6--------------|----------3--4----------|----------6--6-----------|
--6-------6--6--------------|--2-------3--4-------6--|--6-------6--6------11S--|
--6-------4--4----11-0-11S--|--2-------1--2-------6--|--6-------4--4------11S--|
--4----------------9-0--9S--|--0------------------4--|--4------------------9S--|


  Q    E  E  Q    E  E     Q    E  E  Q.      E      Q    E  E  Q    E  E   
------------------------|-------------------------|------------------------|
------------------------|-------------------------|------------------------|
----------3--4----------|----------6--6-----------|----------3--4----------|
--2-------3--4-------6--|--6-------6--6------11S--|--2-------3--4-------6--|
--2-------1--2-------6--|--6-------4--4------11S--|--2-------1--2-------6--|
--0------------------4--|--4------------------9S--|--0------------------4--|


  Q    E  E  Q.      E      Q    E  E  Q    E  E     Q    E  E  Q.      E    
-------------------------|------------------------|-------------------------|
-------------------------|------------------------|-------------------------|
----------6--6-----------|----------3--4----------|----------6--6-----------|
--6-------6--6------11S--|--2-------3--4-------6--|--6-------6--6------11S--|
--6-------4--4------11S--|--2-------1--2-------6--|--6-------4--4------11S--|
--4------------------9S--|--0------------------4--|--4------------------9S--|


  Q    E  E  Q    E  E     Q    E  E  Q.      E      Q    E  E  Q    E  E   
------------------------|-------------------------|------------------------|
------------------------|-------------------------|------------------------|
----------3--4----------|----------6--6-----------|----------3--4----------|
--2-------3--4-------6--|--6-------6--6------11S--|--2-------3--4-------6--|
--2-------1--2-------6--|--6-------4--4------11S--|--2-------1--2-------6--|
--0------------------4--|--4------------------9S--|--0------------------4--|


  Q    E  E  Q.      E      Q    E  E  Q    E  E     Q    E  E  Q.      E    
-------------------------|------------------------|-------------------------|
-------------------------|------------------------|-------------------------|
----------6--6-----------|----------3--4----------|----------6--6-----------|
--6-------6--6------11S--|--2-------3--4-------6--|--6-------6--6------11S--|
--6-------4--4------11S--|--2-------1--2-------6--|--6-------4--4------11S--|
--4------------------9S--|--0------------------4--|--4------------------9S--|


  Q    E  E  Q    E  E     Q    E  E  Q.      E      Q    E  E  Q    E  E   
------------------------|-------------------------|------------------------|
------------------------|-------------------------|------------------------|
----------3--4----------|----------6--6-----------|----------3--4----------|
--2-------3--4-------6--|--6-------6--6------11S--|--2-------3--4-------6--|
--2-------1--2-------6--|--6-------4--4------11S--|--2-------1--2-------6--|
--0------------------4--|--4------------------9S--|--0------------------4--|


  Q    E  E  Q.      E      E  E  E  E  E  E  E  E     E  E  E  E  E  E  E  E   
-------------------------|--------------------------|--------------------------|
-------------------------|--------------------------|--------------------------|
----------6--6-----------|--------------------------|--------------------------|
--6-------6--6------11S--|--2--2--2--2--2--2--2--2--|--2--2--2--2--2--2--2--2--|
--6-------4--4------11S--|--2--2--2--2--2--2--2--2--|--2--2--2--2--2--2--2--2--|
--4------------------9S--|--0--0--0--0--0--0--0--0--|--0--0--0--0--0--0--0--0--|


  E  E  E  E  E  E  E  E     E  E  E  E  E  E  E  E   
--------------------------|--------------------------|
--------------------------|--------------------------|
--6--6--6--6--6--6--6--6--|--6--6--6--6--6--6--6--6--|
--6--6--6--6--6--6--6--6--|--6--6--6--6--6--6--6--6--|
--4--4--4--4--4--4--4--4--|--4--4--4--4--4--4--4--4--|
--4--4--4--4--4--4--4--4--|--4--4--4--4--4--4--4--4--|


  E  E  E  E  E  E  E  E     E  E  E  E  E  E  E  E   
--------------------------|--------------------------|
--------------------------|--------------------------|
--4--4--4--4--4--4--4--4--|--4--4--4--4--4--4--4--4--|
--4--4--4--4--4--4--4--4--|--4--4--4--4--4--4--4--4--|
--2--2--2--2--2--2--2--2--|--2--2--2--2--2--2--2--2--|
--------------------------|--------------------------|


  E  E  E  E  E  E  E  E     E  E  E  E  E  E   Q        Q    E  E  Q    E  E   
--------------------------|---------------------------|------------------------|
--------------------------|---------------------------|------------------------|
--------------------------|---------------------------|----------3--4----------|
--7--7--7--7--7--7--7--7--|--5--5--5--5--5--5--11S----|--2-------3--4-------6--|
--7--7--7--7--7--7--7--7--|--5--5--5--5--5--5--11S----|--2-------1--2-------6--|
--5--5--5--5--5--5--5--5--|--3--3--3--3--3--3---9S----|--0------------------4--|


  Q    E  E  Q.      E      Q    E  E  Q    E  E     Q    E  E  Q.      E    
-------------------------|------------------------|-------------------------|
-------------------------|------------------------|-------------------------|
----------6--6-----------|----------3--4----------|----------6--6-----------|
--6-------6--6------11S--|--2-------3--4-------6--|--6-------6--6------11S--|
--6-------4--4------11S--|--2-------1--2-------6--|--6-------4--4------11S--|
--4------------------9S--|--0------------------4--|--4------------------9S--|


  Q    E  E  Q    E  E     Q    E  E  Q.      E      Q    E  E  Q    E  E   
------------------------|-------------------------|------------------------|
------------------------|-------------------------|------------------------|
----------3--4----------|----------6--6-----------|----------3--4----------|
--2-------3--4-------6--|--6-------6--6------11S--|--2-------3--4-------6--|
--2-------1--2-------6--|--6-------4--4------11S--|--2-------1--2-------6--|
--0------------------4--|--4------------------9S--|--0------------------4--|


  Q    E  E  Q.      E      Q    E  E  Q    E  E     Q    E  E  Q.      E    
-------------------------|------------------------|-------------------------|
-------------------------|------------------------|-------------------------|
----------6--6-----------|----------3--4----------|----------6--6-----------|
--6-------6--6------11S--|--2-------3--4-------6--|--6-------6--6------11S--|
--6-------4--4------11S--|--2-------1--2-------6--|--6-------4--4------11S--|
--4------------------9S--|--0------------------4--|--4------------------9S--|


  Q    E  E  Q    E  E     Q    E  E  Q.      E      Q    E  E  Q    E  E   
------------------------|-------------------------|------------------------|
------------------------|-------------------------|------------------------|
----------3--4----------|----------6--6-----------|----------3--4----------|
--2-------3--4-------6--|--6-------6--6------11S--|--2-------3--4-------6--|
--2-------1--2-------6--|--6-------4--4------11S--|--2-------1--2-------6--|
--0------------------4--|--4------------------9S--|--0------------------4--|


  Q    E  E  Q.      E      Q    E  E  Q    E  E     Q    E  E  Q.      E    
-------------------------|------------------------|-------------------------|
-------------------------|------------------------|-------------------------|
----------6--6-----------|----------3--4----------|----------6--6-----------|
--6-------6--6------11S--|--2-------3--4-------6--|--6-------6--6------11S--|
--6-------4--4------11S--|--2-------1--2-------6--|--6-------4--4------11S--|
--4------------------9S--|--0------------------4--|--4------------------9S--|


  Q    E  E  Q    E  E     Q    E  E  Q.      E      Q    E  E  Q    E  E   
------------------------|-------------------------|------------------------|
------------------------|-------------------------|------------------------|
----------3--4----------|----------6--6-----------|----------3--4----------|
--2-------3--4-------6--|--6-------6--6------11S--|--2-------3--4-------6--|
--2-------1--2-------6--|--6-------4--4------11S--|--2-------1--2-------6--|
--0------------------4--|--4------------------9S--|--0------------------4--|


  Q    E  E  Q.      E      E  E  E  E  E  E  E  E     E  E  E  E  E  E  E  E   
-------------------------|--------------------------|--------------------------|
-------------------------|--------------------------|--------------------------|
----------6--6-----------|--------------------------|--------------------------|
--6-------6--6------11S--|--2--2--2--2--2--2--2--2--|--2--2--2--2--2--2--2--2--|
--6-------4--4------11S--|--2--2--2--2--2--2--2--2--|--2--2--2--2--2--2--2--2--|
--4------------------9S--|--0--0--0--0--0--0--0--0--|--0--0--0--0--0--0--0--0--|


  E  E  E  E  E  E  E  E     E  E  E  E  E  E  E  E   
--------------------------|--------------------------|
--------------------------|--------------------------|
--6--6--6--6--6--6--6--6--|--6--6--6--6--6--6--6--6--|
--6--6--6--6--6--6--6--6--|--6--6--6--6--6--6--6--6--|
--4--4--4--4--4--4--4--4--|--4--4--4--4--4--4--4--4--|
--4--4--4--4--4--4--4--4--|--4--4--4--4--4--4--4--4--|


  E  E  E  E  E  E  E  E     E  E  E  E  E  E  E  E   
--------------------------|--------------------------|
--------------------------|--------------------------|
--4--4--4--4--4--4--4--4--|--4--4--4--4--4--4--4--4--|
--4--4--4--4--4--4--4--4--|--4--4--4--4--4--4--4--4--|
--2--2--2--2--2--2--2--2--|--2--2--2--2--2--2--2--2--|
--------------------------|--------------------------|


  E  E  E  E  E  E  E  E     E  E  E  E  E  E   Q        Q    E  E  Q    E  E   
--------------------------|---------------------------|------------------------|
--------------------------|---------------------------|------------------------|
--------------------------|---------------------------|------------------------|
--7--7--7--7--7--7--7--7--|--5--5--5--5--5--5--11S----|--2-------2--2-------2--|
--7--7--7--7--7--7--7--7--|--5--5--5--5--5--5--11S----|--2-------2--2-------2--|
--5--5--5--5--5--5--5--5--|--3--3--3--3--3--3---9S----|--0-------0--0-------0--|


  Q    E  E  Q    E  E     Q    E  E  Q    E  E     Q    E  E  Q    E  E   
------------------------|------------------------|------------------------|
------------------------|------------------------|------------------------|
------------------------|------------------------|------------------------|
--2-------2--2-------2--|--2-------2--2-------2--|--2-------2--2----2--2--|
--2-------2--2-------2--|--2-------2--2-------2--|--2-------2--2----2--2--|
--0-------0--0-------0--|--0-------0--0-------0--|--0-------0--0----0--0--|


  E  E  E  E  E  E  E  E     E  E  E  E  E  E  E  E   
--------------------------|--------------------------|
--------------------------|--------------------------|
--------------------------|--------------------------|
--2--2--2--2--2--2--2--2--|--2--2--2--2--2--2--2--2--|
--2--2--2--2--2--2--2--2--|--2--2--2--2--2--2--2--2--|
--0--0--0--0--0--0--0--0--|--0--0--0--0--0--0--0--0--|


  E  E  E  E  E  E  E  E     E  E  E  E  E  E  E  E   
--------------------------|--------------------------|
--------------------------|--------------------------|
--4--4--4--4--4--4--4--4--|--4--4--4--4--4--4--4--4--|
--4--4--4--4--4--4--4--4--|--4--4--4--4--4--4--4--4--|
--2--2--2--2--2--2--2--2--|--2--2--2--2--2--2--2--2--|
--------------------------|--------------------------|


  E  E  E  E  E  E  E  E     E  E  E  E  E  E  E  E   
--------------------------|--------------------------|
--------------------------|--------------------------|
--------------------------|--------------------------|
--7--7--7--7--7--7--7--7--|--7--7--7--7--7--7--7--7--|
--7--7--7--7--7--7--7--7--|--7--7--7--7--7--7--7--7--|
--5--5--5--5--5--5--5--5--|--5--5--5--5--5--5--5--5--|


  E  E  E  E  E  E  E  E     E  E  E  E  E  E  E  E   
--------------------------|--------------------------|
--------------------------|--------------------------|
--------------------------|--------------------------|
--5--5--5--5--5--5--5--5--|--5--5--5--5--5--5--5--5--|
--5--5--5--5--5--5--5--5--|--5--5--5--5--5--5--5--5--|
--3--3--3--3--3--3--3--3--|--3--3--3--3--3--3--3--3--|


  E  E  E  E  E  E  E  E     E  E  E  E  E  E  E  E   
--------------------------|--------------------------|
--------------------------|--------------------------|
--4--4--4--4--4--4--4--4--|--4--4--4--4--4--4--4--4--|
--4--4--4--4--4--4--4--4--|--4--4--4--4--4--4--4--4--|
--2--2--2--2--2--2--2--2--|--2--2--2--2--2--2--2--2--|
--------------------------|--------------------------|


  E  E  E  E  E  E  E  E     E  E  E  E  E  E  E  E   
--------------------------|--------------------------|
--------------------------|--------------------------|
--------------------------|--------------------------|
--7--7--7--7--7--7--7--7--|--7--7--7--7--7--7--7--7--|
--7--7--7--7--7--7--7--7--|--7--7--7--7--7--7--7--7--|
--5--5--5--5--5--5--5--5--|--5--5--5--5--5--5--5--5--|


  E  E  E  E  E  E  E  E     E  E  E  E  E  E  E  E   
--------------------------|--------------------------|
--------------------------|--------------------------|
--------------------------|--------------------------|
--5--5--5--5--5--5--5--5--|--5--5--5--5--5--5--5--5--|
--5--5--5--5--5--5--5--5--|--5--5--5--5--5--5--5--5--|
--3--3--3--3--3--3--3--3--|--3--3--3--3--3--3--3--3--|


  E  E  E  E  E  E  E  E     E  E  E  E  E  E  E  E   
--------------------------|--------------------------|
--------------------------|--------------------------|
--4--4--4--4--4--4--4--4--|--4--4--4--4--4--4--4--4--|
--4--4--4--4--4--4--4--4--|--4--4--4--4--4--4--4--4--|
--2--2--2--2--2--2--2--2--|--2--2--2--2--2--2--2--2--|
--------------------------|--------------------------|


  E  E  E  E  E  E  E  E     E  E  E  E  E  E  E  E   
--------------------------|--------------------------|
--------------------------|--------------------------|
--------------------------|--------------------------|
--7--7--7--7--7--7--7--7--|--7--7--7--7--7--7--7--7--|
--7--7--7--7--7--7--7--7--|--7--7--7--7--7--7--7--7--|
--5--5--5--5--5--5--5--5--|--5--5--5--5--5--5--5--5--|


  E  E  E  E  E  E  E  E     E  E  E  E  E  E  E  E   
--------------------------|--------------------------|
--------------------------|--------------------------|
--------------------------|--------------------------|
--5--5--5--5--5--5--5--5--|--5--5--5--5--5--5--5--5--|
--5--5--5--5--5--5--5--5--|--5--5--5--5--5--5--5--5--|
--3--3--3--3--3--3--3--3--|--3--3--3--3--3--3--3--3--|


  E  E  E  E  E  E  E  E     E  E  H.              Q    E  E  Q    E  E   
--------------------------|---------------------|------------------------|
--------------------------|---------------------|------------------------|
--------------------------|---------------------|----------3--4----------|
--4--4--4--4--4--4--4--4--|--4------------------|--2-------3--4-------6--|
--4--4--4--4--4--4--4--4--|--4------------------|--2-------1--2-------6--|
--2--2--2--2--2--2--2--2--|--2------------------|--0------------------4--|


  Q    E  E  Q.      E      Q    E  E  Q    E  E     Q    E  E  Q.      E    
-------------------------|------------------------|-------------------------|
-------------------------|------------------------|-------------------------|
----------6--6-----------|----------3--4----------|----------6--6-----------|
--6-------6--6------11S--|--2-------3--4-------6--|--6-------6--6------11S--|
--6-------4--4------11S--|--2-------1--2-------6--|--6-------4--4------11S--|
--4------------------9S--|--0------------------4--|--4------------------9S--|


  Q    E  E  Q    E  E     Q    E  E  Q.      E      Q    E  E  Q    E  E   
------------------------|-------------------------|------------------------|
------------------------|-------------------------|------------------------|
----------3--4----------|----------6--6-----------|----------3--4----------|
--2-------3--4-------6--|--6-------6--6------11S--|--2-------3--4-------6--|
--2-------1--2-------6--|--6-------4--4------11S--|--2-------1--2-------6--|
--0------------------4--|--4------------------9S--|--0------------------4--|


  Q    E  E  Q.      E      Q    E  E  Q    E  E     Q    E  E  Q.      E    
-------------------------|------------------------|-------------------------|
-------------------------|------------------------|-------------------------|
----------6--6-----------|----------3--4----------|----------6--6-----------|
--6-------6--6------11S--|--2-------3--4-------6--|--6-------6--6------11S--|
--6-------4--4------11S--|--2-------1--2-------6--|--6-------4--4------11S--|
--4------------------9S--|--0------------------4--|--4------------------9S--|


  Q    E  E  Q    E  E     Q    E  E  Q.      E      Q    E  E  Q    E  E   
------------------------|-------------------------|------------------------|
------------------------|-------------------------|------------------------|
----------3--4----------|----------6--6-----------|----------3--4----------|
--2-------3--4-------6--|--6-------6--6------11S--|--2-------3--4-------6--|
--2-------1--2-------6--|--6-------4--4------11S--|--2-------1--2-------6--|
--0------------------4--|--4------------------9S--|--0------------------4--|


  Q    E  E  Q.      E      Q    E  E  Q    E  E     Q    E  E  Q.      E    
-------------------------|------------------------|-------------------------|
-------------------------|------------------------|-------------------------|
----------6--6-----------|----------3--4----------|----------6--6-----------|
--6-------6--6------11S--|--2-------3--4-------6--|--6-------6--6------11S--|
--6-------4--4------11S--|--2-------1--2-------6--|--6-------4--4------11S--|
--4------------------9S--|--0------------------4--|--4------------------9S--|


  Q    E  E  Q    E  E     Q    E  E  Q.      E      Q    E  E  Q    E  E   
------------------------|-------------------------|------------------------|
------------------------|-------------------------|------------------------|
----------3--4----------|----------6--6-----------|----------3--4----------|
--2-------3--4-------6--|--6-------6--6------11S--|--2-------3--4-------6--|
--2-------1--2-------6--|--6-------4--4------11S--|--2-------1--2-------6--|
--0------------------4--|--4------------------9S--|--0------------------4--|


  Q    E  E  Q.      E      Q    Q    Q    Q       H        H         
-------------------------|----------------------|--------------------|
-------------------------|----------------------|--------------------|
----------6--6-----------|----------------------|--------------------|
--6-------6--6------11S--|--9-------------------|-----------2--------|
--6-------4--4------11S--|--7-------------------|-----------2--------|
--4------------------9S--|--0-------------------|-----------0--------|


-----------||
-----------||
-----------||
-----------||
-----------||
-----------||




Duration Legend
---------------
W - whole
H - half
Q - quarter
E - 8th
S - 16th
T - 32nd
X - 64th
. - note dotted
|-n-|  - n-tuplets


Tablature Legend
----------------
L - tied note
x - dead note
g - grace note
(n) - ghost note
> - accentuded note
NH - natural harmonic
AH - artificial harmonic
TH - tapped harmonic
SH - semi harmonic
PH - pitch harmonic
h - hammer on
p - pull off
b - bend
br - bendRelease
pb - preBend
pbr - preBendRelease
brb - bendReleaseBend
\n/ - tremolo bar dip
\n - tremolo bar dive
-/n - tremolo bar Release up
/n\ - tremolo bar inverted dip
/n - tremolo bar return
-\n - tremolo bar Release down
S - shift slide
s - legato slide
/ -  slide into from below or out of upwards
\ -  slide into from above or out of downwards
~ - vibrato
W - wide vibrato
tr - trill
TP - tremolo picking
T - tapping
S - slap
P - pop
< - fade in
^ - brush up
v - brush down
Tap to rate this tab
 
# A B C D E F G H I J K L M N O P Q R S T U V W X Y Z