Song name
# A B C D E F G H I J K L M N O P Q R S T U V W X Y Z

The Undead - I Dont Wanna Go tab

Intro
E------------------|
B------------------|
G--6-6-6-6-6-6-6-6-|
D--6-6-6-6-6-6-6-6-|
A--4-4-4-4-4-4-4-4-|
E------------------|

Verse
E------------------|-----------------|-----------------|-----------------|
B------------------|-----------------|-----------------|-----------------|
G--6-6-6-6-6-6-6-6-|-4-4-4-4-4-4-4-4-|-6-6-6-6-6-6-6-6-|-4-4-4-4-4-4-4-4-|
D--6-6-6-6-6-6-6-6-|-4-4-4-4-4-4-4-4-|-6-6-6-6-6-6-6-6-|-4-4-4-4-4-4-4-4-|
A--4-4-4-4-4-4-4-4-|-2-2-2-2-2-2-2-2-|-4-4-4-4-4-4-4-4-|-2-2-2-2-2-2-2-2-|
E------------------|-----------------|-----------------|-----------------|

Pre-Chorus ("...Chain around my neck")
E------------------|-----------------|-----------------|-----------------|
B------------------|-----------------|-----------------|-----------------|
G------------------|-----------------|-----------------|-----------------|
D--4-4-4-4-4-4-4-4-|-6-6-6-6-6-6-6-6-|-2-2-2-2-2-2-2-2-|-4-4-4-4-4-4-4-4-|
A--4-4-4-4-4-4-4-4-|-6-6-6-6-6-6-6-6-|-2-2-2-2-2-2-2-2-|-4-4-4-4-4-4-4-4-|
E--2-2-2-2-2-2-2-2-|-4-4-4-4-4-4-4-4-|-0-0-0-0-0-0-0-0-|-2-2-2-2-2-2-2-2-|

Chorus            x3
E-------------------|------------|
B-------------------|------------|
G--4-4-4-4--6-6-6-6-|-4-4-4-4--6-|
D--4-4-4-4--6-6-6-6-|-4-4-4-4--6-|
A--2-2-2-2--4-4-4-4-|-2-2-2-2--4-|
E-------------------|------------|

Verse
E------------------|-----------------|-----------------|-----------------|
B------------------|-----------------|-----------------|-----------------|
G--6-6-6-6-6-6-6-6-|-4-4-4-4-4-4-4-4-|-6-6-6-6-6-6-6-6-|-4-4-4-4-4-4-4-4-|
D--6-6-6-6-6-6-6-6-|-4-4-4-4-4-4-4-4-|-6-6-6-6-6-6-6-6-|-4-4-4-4-4-4-4-4-|
A--4-4-4-4-4-4-4-4-|-2-2-2-2-2-2-2-2-|-4-4-4-4-4-4-4-4-|-2-2-2-2-2-2-2-2-|
E------------------|-----------------|-----------------|-----------------|

Pre-Chorus ("...Chain around my neck")
E------------------|-----------------|-----------------|-----------------|
B------------------|-----------------|-----------------|-----------------|
G------------------|-----------------|-----------------|-----------------|
D--4-4-4-4-4-4-4-4-|-6-6-6-6-6-6-6-6-|-2-2-2-2-2-2-2-2-|-4-4-4-4-4-4-4-4-|
A--4-4-4-4-4-4-4-4-|-6-6-6-6-6-6-6-6-|-2-2-2-2-2-2-2-2-|-4-4-4-4-4-4-4-4-|
E--2-2-2-2-2-2-2-2-|-4-4-4-4-4-4-4-4-|-0-0-0-0-0-0-0-0-|-2-2-2-2-2-2-2-2-|

Chorus            x3
E-------------------|------------|
B-------------------|------------|
G--4-4-4-4--6-6-6-6-|-4-4-4-4--6-|
D--4-4-4-4--6-6-6-6-|-4-4-4-4--6-|
A--2-2-2-2--4-4-4-4-|-2-2-2-2--4-|
E-------------------|------------|

Verse
E------------------|-----------------|-----------------|-----------------|
B------------------|-----------------|-----------------|-----------------|
G--6-6-6-6-6-6-6-6-|-4-4-4-4-4-4-4-4-|-6-6-6-6-6-6-6-6-|-4-4-4-4-4-4-4-4-|
D--6-6-6-6-6-6-6-6-|-4-4-4-4-4-4-4-4-|-6-6-6-6-6-6-6-6-|-4-4-4-4-4-4-4-4-|
A--4-4-4-4-4-4-4-4-|-2-2-2-2-2-2-2-2-|-4-4-4-4-4-4-4-4-|-2-2-2-2-2-2-2-2-|
E------------------|-----------------|-----------------|-----------------|

Pre-Chorus ("...Chain around my neck")
E------------------|-----------------|-----------------|-----------------|
B------------------|-----------------|-----------------|-----------------|
G------------------|-----------------|-----------------|-----------------|
D--4-4-4-4-4-4-4-4-|-6-6-6-6-6-6-6-6-|-2-2-2-2-2-2-2-2-|-4-4-4-4-4-4-4-4-|
A--4-4-4-4-4-4-4-4-|-6-6-6-6-6-6-6-6-|-2-2-2-2-2-2-2-2-|-4-4-4-4-4-4-4-4-|
E--2-2-2-2-2-2-2-2-|-4-4-4-4-4-4-4-4-|-0-0-0-0-0-0-0-0-|-2-2-2-2-2-2-2-2-|

Chorus            x3
E-------------------|------------|
B-------------------|------------|
G--4-4-4-4--6-6-6-6-|-4-4-4-4--6-|
D--4-4-4-4--6-6-6-6-|-4-4-4-4--6-|
A--2-2-2-2--4-4-4-4-|-2-2-2-2--4-|
E-------------------|------------|
                  x3                                    x3
E------------------|------------------|------------------|-----|
B------------------|------------------|------------------|-----|
G----------4-4-4-4-|----------6-6-6-6-|-4-4-4-4--6-6-6-6-|--4--|
D-4-4-4-4--4-4-4-4-|-4-4-4-4--6-6-6-6-|-4-4-4-4--6-6-6-6-|--4--|
A-4-4-4-4--2-2-2-2-|-4-4-4-4--4-4-4-4-|-2-2-2-2--4-4-4-4-|--2--|
E-2-2-2-2----------|-2-2-2-2----------|------------------|-----|

Verse
E------------------|-----------------|-----------------|-----------------|
B------------------|-----------------|-----------------|-----------------|
G--6-6-6-6-6-6-6-6-|-4-4-4-4-4-4-4-4-|-6-6-6-6-6-6-6-6-|-4-4-4-4-4-4-4-4-|
D--6-6-6-6-6-6-6-6-|-4-4-4-4-4-4-4-4-|-6-6-6-6-6-6-6-6-|-4-4-4-4-4-4-4-4-|
A--4-4-4-4-4-4-4-4-|-2-2-2-2-2-2-2-2-|-4-4-4-4-4-4-4-4-|-2-2-2-2-2-2-2-2-|
E------------------|-----------------|-----------------|-----------------|

Pre-Chorus ("...Chain around my neck")
E------------------|-----------------|-----------------|-----------------|
B------------------|-----------------|-----------------|-----------------|
G------------------|-----------------|-----------------|-----------------|
D--4-4-4-4-4-4-4-4-|-6-6-6-6-6-6-6-6-|-2-2-2-2-2-2-2-2-|-4-4-4-4-4-4-4-4-|
A--4-4-4-4-4-4-4-4-|-6-6-6-6-6-6-6-6-|-2-2-2-2-2-2-2-2-|-4-4-4-4-4-4-4-4-|
E--2-2-2-2-2-2-2-2-|-4-4-4-4-4-4-4-4-|-0-0-0-0-0-0-0-0-|-2-2-2-2-2-2-2-2-|

Chorus            x12
E-------------------|
B-------------------|
G--4-4-4-4--6-6-6-6-|
D--4-4-4-4--6-6-6-6-|
A--2-2-2-2--4-4-4-4-|
E-------------------|
-----------------------------------------------------------------------
 C# 
 C# B (2x)
 F# G# E F#
 B C# (3x)
 B [break
 C# B (2x)
 F# G# E F#
 B C# (3x)
 B [break]
 C# B (2x)
 F# G# E F#
 B C# (3x)
 B [break]
 F# B (3x) w/solo
 F# C#     w/solo
 B C# (3x) w/solo
 B [break]
 C# B (2x)
 F# G# E F#
 B C# (12x)
 fade out...
Tap to rate this tab
# A B C D E F G H I J K L M N O P Q R S T U V W X Y Z