Song name
# A B C D E F G H I J K L M N O P Q R S T U V W X Y Z

The Underground Youth - Morning Sun tab

                            The Underground Youth
                                Morning Sun
       
My first tab. hope you like it ;)
The Underground Youth is a great, new, psychedelic band from the UK

e|--------------------------------------------------------|
b|--------------5---5---5----3--3--3--3--5--5--3--3--5--5-|
g|-4----4---4---------------------------------------------|
d|--------------------------------------------------------|
a|--------------------------------------------------------|
E|--------------------------------------------------------|                                 
                                  bend up and down(1/2 step)
e|--------------------------------------------------------|
b|--------------5---5---5----3----5--5--5--5--5--5--5-----|
g|-4----4---4---------------------------------------------|
d|--------------------------------------------------------|
a|--------------------------------------------------------|
E|--------------------------------------------------------|

just play this over that awesome psychedelic song ;)
http://www.theundergroundyouth.com/
Tap to rate this tab
# A B C D E F G H I J K L M N O P Q R S T U V W X Y Z