Song name
# A B C D E F G H I J K L M N O P Q R S T U V W X Y Z

The Union Line - Dirty Water tab

e|-------3----------|--------2----------|
B|---1--------1---1-|----1-------1---1--|
G|-----2--------2---|-------2------2----|2x
D|-2-------2--------|--2-------2--------|
A|------------------|-------------------|
E|------------------|-------------------|

e|-------8----------|-------7-----------|
B|---6-------6---6--|---6-------6---6---|
G|-----7-------7----|-----7-------7-----|2x
D|-7-------7--------|-7-------7---------|
A|------------------|-------------------|
E|------------------|-------------------|
Oh my lover...
e|-------3----------|--------2----------|
B|---1--------1---1-|----1-------1---1--|
G|-----2--------2---|-------2------2----|2x
D|-2-------2--------|--2-------2--------|
A|------------------|-------------------|
E|------------------|-------------------|
Underneath the bridge...
e|-------8----------|-------7-----------|
B|---6-------6---6--|---6-------6---6---|
G|-----7-------7----|-----7-------7-----|2x
D|-7-------7--------|-7-------7---------|
A|------------------|-------------------|
E|------------------|-------------------|
In the dirty water
e|-------3----------|--------2----------|
B|---1--------1---1-|----1-------1---1--|
G|-----2--------2---|-------2------2----|2x
D|-2-------2--------|--2-------2--------|
A|------------------|-------------------|
E|------------------|-------------------|

Wouldn't dare...(Its either wouldn't or couldn't, I don't know the lyrics lol and I 
feel like checking)
e|-------8----------|-------7-----------|
B|---6-------6---6--|---6-------6---6---|
G|-----7-------7----|-----7-------7-----|2x
D|-7-------7--------|-7-------7---------|
A|------------------|-------------------|
E|------------------|-------------------|

e|-------0--|
B|---4------|
G|-----5----|2 times
D|-5--------|
A|----------|
E|----------|

e|-------0-------|
B|---4-------4---|
G|-----5-------5-| Once
D|-5-------5-----|
A|---------------|
E|---------------|
All my love is
e|-------0--|
B|---4------|
G|-----5----|2 times
D|-5--------|
A|----------|
E|----------|
wasted
e|-------0-------|
B|---4-------4---|
G|-----5-------5-| Once
D|-5-------5-----|
A|---------------|
E|---------------|
        2x
ooooooooohhhh! all is wasted
e|-5--5--3--|
B|-5--7--3--|
G|-5--5--4--|
D|-7--7--5--|
A|-7--5--5--|
E|-5--x--3--|

e|-------7-------5-------5--------|
B|---5-------5-------5-------5----|
G|-----5-------5-------5-------5--|
D|-7-------7-------7-------7------|
A|--------------------------------|
E|--------------------------------|

e|----------------------------------------------|
B|-------7------7-------7-----------------------|
G|---5------5-------5------5--------------------|
D|-----7------7-------7------7------------------| I'm not done haha
A|-5------5-------5-------5---------------------|
E|----------------------------------------------|


           theunionline.blogspot.com
Tap to rate this tab
 
# A B C D E F G H I J K L M N O P Q R S T U V W X Y Z