Song name
# A B C D E F G H I J K L M N O P Q R S T U V W X Y Z

The Unlovables - Doot Da Doot tab

-----------------------------------------------------------------------------
                   Doot Da Doot - The Unlovables
-----------------------------------------------------------------------------

Artist: Unlovables
Website: http://www.theunlovables.com
Song: Doot Da Doot
Albulm: Crush, Boyfriend, Heartbreak
Tabbed by: Zero
Tunning: Both Guitars Standard E (EADGBe)

Note: Any portion of the tab that refers to (Frank + Christian)
is basically refering to the same riffs coming out of both speakers.
I assume during recording, Frank's guitar is channeled through
Both speakers, and Christian does nothing, but live, He probably plays
Along to Franks part.
======================================================================

Intro: (Frank + Christian) (i.1)
"Doot da doot..."
e|------------------------------------|
B|------------------------------------|
G|-7-7-7-7-7-7-7-7--------------------|
D|-7-7-7-7-7-7-7-7--4-4-4-/5-5-5-/7-7-|
A|-5-5-5-5-5-5-5-5--4-4-4-/5-5-5-/7-7-|
E|------------------2-2-2-/3-3-3-/5-5-|

(i.2)
e|------------------------------------|
B|------------------------------------|
G|------------------------------------|
D|-9-9-9-9-9-9-9-9--4-4-4-/5-5-5-/7-7-|
A|-9-9-9-9-9-9-9-9--4-4-4-/5-5-5-/7-7-|
E|-7-7-7-7-7-7-7-7--2-2-2-/3-3-3-/5-5-|

Verse: (Frank + Christian) (v.1)
"I saw you..."
e|--------------------------------------|
B|--------------------------------------|
G|-7-7-7-7-7-7-7-7----------------------|
D|-7-7-7-7-7-7-7-7--7-7-7-7-7-7-7-7-7-7-|
A|-5-5-5-5-5-5-5-5--7-7-7-7-7-7-7-7-7-7-|
E|------------------5-5-5-5-5-5-5-5-5-5-|

Chorus: (Frank)
"When we met..."
e|----------------------------|
B|----------------------------|
G|---------------7-7----------|
D|-9-9-9--7-7-7--7-7--5-5-5-5-|
A|-9-9-9--7-7-7--5-5--5-5-5-5-|
E|-7-7-7--5-5-5-------3-3-3-3-|

Chorus: (Christian)
e|------------------------------|
B|------------------------------|
G|-7-6-4---4-6-4---7-9-7-7-6-7~-|
D|-------7-------7--------------|
A|------------------------------|
E|------------------------------|

"You're the one for me..."
(Frank)
e|------------------|
B|------------------|
G|------------------|
D|-9-9-9-9--7-7-7-7-|
A|-9-9-9-9--7-7-7-7-|
E|-7-7-7-7--5-5-5-5-|

(Christian)
1st        2nd
e|-------|------|
B|-------|------|
G|-7~-6~-|--7-9-|
D|-------|------|
A|-------|------|
E|-------|------|

Bridge: (Frank) (b.1)
"When I'm feeling..."
e|---------------------------------|
B|---------------------------------|
G|---------------------------------|
D|-9-9-9-9-9-9-9-9-9-9-9-9-9-9-9-9-|
A|-9-9-9-9-9-9-9-9-9-9-9-9-9-9-9-9-|
E|-7-7-7-7-7-7-7-7-7-7-7-7-7-7-7-7-|

(b.2)
e|----------------------------------|
B|----------------------------------|
G|----------------------------------|
D|-\7-7-7-7-7-7-7-7-7-7-7-7-7-7-7-7-|
A|-\7-7-7-7-7-7-7-7-7-7-7-7-7-7-7-7-|
E|-\5-5-5-5-5-5-5-5-5-5-5-5-5-5-5-5-|

(b.3)
e|----------------------------------|
B|----------------------------------|
G|----------------------------------|
D|-\5-5-5-5-5-5-5-5-5-5-5-5-5-5-5-5-|
A|-\5-5-5-5-5-5-5-5-5-5-5-5-5-5-5-5-|
E|-\3-3-3-3-3-3-3-3-3-3-3-3-3-3-3-3-|

(b.4)
e|----------------------------------|
B|----------------------------------|
G|----------------------------------|
D|-/7-7-7-7-7-7-7-7-7-7-7-7-7-7-7-7-|
A|-/7-7-7-7-7-7-7-7-7-7-7-7-7-7-7-7-|
E|-/5-5-5-5-5-5-5-5-5-5-5-5-5-5-5-5-|

Bridge: (Christian) (b.1) [Palm Muted]
e|-----------------------------------|
B|-----------------------------------|
G|-----7---7-9-7-11-7-9-7--7-9h-7----|
D|-9-9---9------------------------9h-|
A|-----------------------------------|
E|-----------------------------------|

(b.2) [Palm Muted]
e|--------------------------------|
B|--------------------------------|
G|-----6---6-7-6-9-6--6-7h-6------|
D|-7-7---7-------------------7h-6-|
A|--------------------------------|
E|--------------------------------|

(b.3) [Palm Muted]
e|---------------------------------|
B|---------------------------------|
G|-----6---6-7-6-9-6-7-6-6-7h-6----|
D|-5-5---5----------------------7h-|
A|---------------------------------|
E|---------------------------------|

(b.4) [Palm Muted]
e|--------------------------------|
B|--------------------------------|
G|-----6---6-7-6-9-6--6-7h-6------|
D|-7-7---7-------------------7h-8-|
A|--------------------------------|
E|--------------------------------|

Fill: (Frank + Christian)
"I can't help but stare..."
e|---------|
B|---------|
G|---------|
D|-7--7-/9-|
A|-7--7-/9-|
E|-5--5-/7-|


Outro-Chorus: (Frank) (oc.1)
e|---------------------------------|
B|---------------------------------|
G|-------------------9-9-9---------|
D|-11-11-11--\9-9-9--9-9-9--\7-7-7-|
A|-11-11-11--\9-9-9--7-7-7--\7-7-7-|
E|--9--9--9--\7-7-7--7-7-7--\5-5-5-|

(oc.2)
e|------------|
B|------------|
G|------------|
D|-11--11--\9-|
A|-11--11--\9-|
E|-9---9---\7-|

Outro-Chorus: (Christian)
(Truth be told...This is what I hear, and play anyway)
e|-9-0-------------------------|
B|-----9-0-7-9h---9-9-10-9-7-9-|
G|--------------9--------------|
D|-----------------------------|
A|-----------------------------|
E|-----------------------------|

Outro: (Frank)
e|----|
B|----|
G|----|
D|-2~-|
A|-2~-|
E|-0~-|

Outro: (Christian)
e|----|
B|-9~-|
G|-9~-|
D|-9~-|
A|-7~-|
E|----|

Legend:

| ~ = Vibrato
| / = Slide Up
| \ = Slide Down
| h = Hammer on

=============================================================================
Tap to rate this tab
# A B C D E F G H I J K L M N O P Q R S T U V W X Y Z