Guitaretab - guitar tabs
Song name
# A B C D E F G H I J K L M N O P Q R S T U V W X Y Z

The Upholsterers - Apple Of My Eye tab

-------------------------------------------------------------------------------
			     Apple of my Eye-The upholsters
-------------------------------------------------------------------------------
Tabbed by:dwarfcar21
Email:wally_kai_Harper@yahoo.com

Tuning:standard

Man,They need tabs for this band so might as well put them up. This is a good song. This 
all ear transcribed so watch the criticism. Thanks and ENJOY!

Intro: This part requires a pick. For the lower notes down stroke with the pick. For the 
note use your ring ringer and middle finger and strum the high e string.

e|---0---0--0--------------------------------------------------------------------|
B|---x---x--x--------------------------------------------------------------------|
G|---x---x--x--------------------------------------------------------------------|
D|---2---2--2---2----------------------------------------------------------------|
A|---2---2--2---2----------------------------------------------------------------|
E|---0---0--0---0----------------------------------------------------------------|

verse:palm mute,Rhythm.Play this through the song.

e|-------------|-----------------|
B|-------------|----------------5|
G|-------------|-----------------|
D|--2--2---2---|-7-7-7-7-7-7-7-7-|
A|--2--2---2---|-7-7-7-7-7-7-7-7-|
E|--0--0---0---|-5-5-5-5-5-5-5-5-|play how many ever times for the 1st part then every 
after he says something he'll throw in a few different chords(in the 2nd part.)
[ Tab from: http://www.guitaretab.com/t/the-upholsterers/179812.html ]
Fills:Listen to song for timing.

e|----19-12-19-12-|------------|----------------------------------------|
B|----------------|---5h7-5h95-|----------------------------------------|
G|----------------|------------|-------------------7-7-7-7-7-7-5-5-3-4-4|
D|----------------|------------|--7-7-7-7-7-7-7-7--7-7-7-7-7-7-5-5-3-4-4|
A|----------------|------------|--5-5-5-5-5-5-5-5--5-5-5-5-5-5-3-3-1-2-2|
E|----------------|------------|--5-5-5-5-5-5-5-5-----------------------|

Back to main riff.

e|-------------|-----------------|
B|-------------|----------------5|
G|-------------|-----------------|
D|--2--2---2---|-7-7-7-7-7-7-7-7-|
A|--2--2---2---|-7-7-7-7-7-7-7-7-|
E|--0--0---0---|-5-5-5-5-5-5-5-5-|play how many ever times for the 1st part then every 
after he says something he'll throw in a few different chords(in the 2nd part.)


Outro:just some more chords

e|---------------------------------------------------------------------------|
B|---------------------------------------------------------------------------|
G|-----------------5-5-5-5-5-5-----------------------------------------------|
D|---7/9-9-9-9-9-9-5-5-5-5-5-5--9-9-9-9-9-9----------------------------------|
A|---7/9-9-9-9-9-9-3-3-3-3-3-3--9-9-9-9-9-9----------------------------------|
E|---5/7-7-7-7-7-7--------------7-7-7-7-7-7----------------------------------|


| b  bend
| /  slide up
| \  slide down
| h  hammer-on
| p  pull-off
| ~  vibrato
| +  harmonic
| x  Mute note
=====================================================================
Related for Apple Of My Eye tab
Advertisement will be closed in 10 seconds