Song name
# A B C D E F G H I J K L M N O P Q R S T U V W X Y Z

The Upsetters - Return Of Django tab

-------------------------------------------------------------------------------
			  Return of Django - The Upsetters
-------------------------------------------------------------------------------
Tabbed by: Neil R. Rose
Email: neil.damage.done@gmail.com

This is probably incorrect. But as close as I could get for now.

Tuning: Standard


       main riff                          C
e|--8------------------8--------------|--8--8--8--8--8--8--8--8--|
B|-----11p10p8------------11p10p8-----|--8--8--8--8--8--8--8--8--|
G|---------------8------------------8-|--9--9--9--9--9--9--9--9--|
D|------------------------------------|--10-10-10-10-10-10-10-10-|
A|------------------------------------|--------------------------|
E|------------------------------------|--------------------------|

riff 2
e|--------------------------------------------|--8--8--8--8--8--8--8--8--|
B|--------------------------------------------|--8--8--8--8--8--8--8--8--|
G|--------------------8-----------------------|--9--9--9--9--9--9--9--9--|
D|--10-10--8-10-8-10--------10-10--8-10-8-----|--10-10-10-10-10-10-10-10-|
A|----------------------------------------8---|--------------------------|
E|------------------------------------------8-|--------------------------|

The Chord melody to the song is

C - C - C - C - C - C - C - C
D - D - D - D - C - C - C - C
E - E - E - E - C - C - C - C


| /  slide up
| \  slide down
| h  hammer-on
| p  pull-off
| ~  vibrato
| +  harmonic
| x  Mute note
===============================================================================

http://www.upsetter.net/scratch/
Tap to rate this tab
# A B C D E F G H I J K L M N O P Q R S T U V W X Y Z