Song name
# A B C D E F G H I J K L M N O P Q R S T U V W X Y Z

The Used - Smother Me tab

Song Title: Smother Me
Artist: The Used
Album: Lies For The Liars

I rewrote this to use a capo to make it easier to play, it's my first tab, hope it's useful.

Tabbed by Delphinius Tucker

Tuning: Dropped D Tuning (eBGDAD)
Capo: 3


I. INTRO

Piano 1
e|--------------------------------------------------------------------------|
B|-----2--2-----2--2-----2--2-----2--2-----2--2-----2--2-----2--2-----2--2--|
G|-----2--2-----2--2-----2--2-----2--2-----2--2-----2--2-----2--2-----2--2--|
D|--------------------------------------2--------2--------2--------2--------|
A|--0--------0--------0--------0--------0--------0--------0--------0--------|
D|--0--------0--------0--------0--------------------------------------------|
(continued)
e|-------------------------------------------------------------|
B|-----2--2-----2--2-----2--2-----2--2-----2--2-----2--2-------|
G|-----2--2-----2--2-----2--2-----2--2-----2--2-----2--2-------|
D|--------------------------------------2--------2--------2~~--|
A|--0--------0--------0--------0--------0--------0--------0~~--|
D|--0--------0--------0--------0-------------------------------|

II. VERSE 1

Piano 1
e|--------------------------------------------------------------------------|1x
B|-----2--2-----2--2-----2--2-----2--2-----2--2-----2--2-----2--2-----2--2--|
G|-----2--2-----2--2-----2--2-----2--2-----2--2-----2--2-----2--2-----2--2--|
D|--------------------------------------2--------2--------2--------2--------|
A|--0--------0--------0--------0--------0--------0--------0--------0--------|
D|--0--------0--------0--------0--------------------------------------------|

III. REFRAIN 1

Piano 1
e|---------------------------|-------------------|
B|----------5-0-------0-2----|----------5-0------|
G|--------2---------------2--|--------2----------|
D|------0-----------2--------|------0------------|
A|--0-0---------2-2----------|--0-0---------2~~--|
D|--0-----------2------------|--0-----------2~~--|

IV. CHORUS 1

Piano 1
e|---------------------------|---------------------------|2x
B|----------2---------0------|------------------0--------|
G|------2-----2---------1----|------2-5-2---------0---0--|
D|--2-2---2---------2-----2--|----2-------2---0-----7----|
A|--0-----------2-2----------|--7------------------------|
D|--------------2------------|--5-----------6------------|

V. POST  CHORUS

Piano 1
e|--6-7-6----|------------5-7-5~~-------|
B|--------7--|--7-5-7-5-7-5-7-----------|
G|-----------|--------------------------|
D|-----------|--------------------------|
A|-----------|--------------------------|
D|-----------|--------------------------|
(continued)
e|--6-7-6----|---------------------------|
B|--------7--|--7-5-7-5-7-5-7-5-7--------|
G|-----------|--------------------6~~----|
D|-----------|---------------------------|
A|-----------|---------------------------|
D|-----------|---------------------------|

Piano 2
(Starts on the second bar of Gtr 1)
e|--------------------------------------------------------------------------|
B|-----2--2-----2--2-----2--2-----2--2-----2--2-----2--2-----2--2-----2--2--|
G|-----2--2-----2--2-----2--2-----2--2-----2--2-----2--2-----2--2-----2--2--|
D|--------------------------------------2--------2--------2--------2--------|
A|--0--------0--------0--------0--------0--------0--------0--------0--------|
D|--0--------0--------0--------0--------------------------------------------|
(continued)
e|-------------------------------------------------------------|
B|-----2--2-----2--2-----2--2-----2--2-----2--2-----2--2-------|
G|-----2--2-----2--2-----2--2-----2--2-----2--2-----2--2-------|
D|--------------------------------------2--------2--------2~~--|
A|--0--------0--------0--------0--------0--------0--------0~~--|
D|--0--------0--------0--------0-------------------------------|

VI. VERSE 2

Piano 1
e|--------------------------------------------------------------------------|1x
B|-----2--2-----2--2-----2--2-----2--2-----2--2-----2--2-----2--2-----2--2--|
G|-----2--2-----2--2-----2--2-----2--2-----2--2-----2--2-----2--2-----2--2--|
D|--------------------------------------2--------2--------2--------2--------|
A|--0--------0--------0--------0--------0--------0--------0--------0--------|
D|--0--------0--------0--------0--------------------------------------------|

VII. REFRAIN 2

Piano 1
e|---------------------------|-------------------|
B|----------5-0-------0-2----|----------5-0------|
G|--------2---------------2--|--------2----------|
D|------0-----------2--------|------0------------|
A|--0-0---------2-2----------|--0-0---------2~~--|
D|--0-----------2------------|--0-----------2~~--|


VIII. CHORUS 2

Piano 1
e|---------------------------|---------------------------|2x
B|----------2---------0------|------------------0--------|
G|------2-----2---------1----|------2-5-2---------0---0--|
D|--2-2---2---------2-----2--|----2-------2---0-----7----|
A|--0-----------2-2----------|--7------------------------|
D|--------------2------------|--5-----------6------------|


IX. BRIDGE
(Just pluck/strum these chords.)

Piano 1/Gtr 1
e|--Dm-----Repeat 2x--------Am---|-------------------|
B|--3~~---------F----------------|--G-----------G----|
G|--4~~---------------------3~~--|--1~~---------1~~--|
D|--4~~---------0~~---------4~~--|--2~~---------2~~--|
A|--2~~---------0~~---------4~~--|--2~~---------2~~--|
D|--------------0~~---------2~~--|--2~~---------2~~--|

[Repeat CHORUS 2 2x]


X. OUTRO
Piano 1
e|--6-7-6----|------------5-7-5~~-------|
B|--------7--|--7-5-7-5-7-5-7-----------|
G|-----------|--------------------------|
D|-----------|--------------------------|
A|-----------|--------------------------|
D|-----------|--------------------------|
(continued)
e|--6-7-6----|---------------------------|
B|--------7--|--7-5-7-5-7-5-7-5-7--------|
G|-----------|--------------------6~~----|
D|-----------|---------------------------|
A|-----------|---------------------------|
D|-----------|---------------------------|
(continued)
e|--6-7-6-----------------5~~--|
B|--------7-7-5-7-5-7-5-7------|
G|-----------------------------|
D|-----------------------------|
A|-----------------------------|
D|-----------------------------|
Tap to rate this tab
# A B C D E F G H I J K L M N O P Q R S T U V W X Y Z